Soundgarden - No Wrong No Right Chords & Tabs

 

No Wrong No Right Chords & Tabs

Soundgarden Chords & Tabs

Version: 1 Type: Tab 0 ratings
1 star 2 stars 3 stars 4 stars 5 stars
comments

No Wrong No Right Tab

#----------------------------------PLEASE NOTE--------------------------------#
#This file is the author's own work and represents their interpretation of the#
#song. You may only use this file for private study, scholarship, or research.#
#-----------------------------------------------------------------------------#

Date: Fri, 19 Jun 1998 13:04:57 -0500
From: ponies2@computek.net (Keith Barron)
Subject: s/soundgarden/no_wrong_no_right.tab

Song: No Wrong No Right
Band: Soundgarden
Album: Louder Than Love
Music: Yamamoto
Lyrics: Cornell

I have found no tab for this song. I wanted one. So I did my best to tab it
out but its a pretty hard song to tab out because there is no 'rhythm'
guitar. The guitar is lead and the bass plays rhythm. And sometimes the bass
also plays lead so all of this tab changes every bar.

Intro: (guitar)
|----------------------------------------------|
|--3----------3----------3----------3----------|   Play 2 times
|--5br--------5br--------5br--------5br--------|
|----------------------------------------------|


Verse: (bass part)
|-------------------------|---------------------------|
|-------------------------|---------------------------|
|-------------------------|---------------------------|
|--6---5---6---5---3-/-5--|-6---5---3--5p3-\1--3p1p0--|

[ Tab from: http://www.guitartabs.cc/tabs/s/soundgarden/no_wrong_no_right_tab.html ]
Verse: (guitar)
|-------------------------|---------------------------|
|-------------------------|---------------------------|
|-------------------------|---------------------------|
|-------------7-/9-12-12--|---------------7-/9-12-12--|
|-------------------------|---------------------------| 
|-------------7-/9-12-12--|---------------7-/9-12-12--|

Prechorus: (guitar) (before last chorus)
|------------------------------|
|-5---5---5--5--5---5---5--5---|
|-7b--7b--7b-7b-7b--7b--7b-7b--|
|------------------------------|
|------------------------------|
|------------------------------|

Chorus: (guitar)    Play 7X     
||--------------------------|| |-------------------------|-----
||--------------------------|| |---------------5---5--5--|-3---
||o------------------MINI--o|| |---------------7b--7b-7b-|-5b--
||o--2-2-2-4-4-4-5---SOLO--o|| |--2-2-2-4-4-5------------|-----
||---2-2-2-4-4-4-5----------|| |--2-2-2-4-4-5------------|-----
||---2-2-2-4-4-4-5----------|| |--2-2-2-4-4-5------------|-----


Post chorus: (bass) Play this at the end of the song.
|-------------------------------------------|
|-------------------------------------------| 
|-------------------------------------------|
|-------------------------------------------|
|-------------------------------------------|
|-12-12-12-13-13-13-12-12-12-13-13-13-10h13-|

That's all I have.
Comments