Soundgarden - New Damage Chords & Tabs

 

New Damage Chords & Tabs

Soundgarden Chords & Tabs

Version: 1 Type: Tab 0 ratings
1 star 2 stars 3 stars 4 stars 5 stars
comments

New Damage Tab

----------------------------------PLEASE NOTE--------------------------------#
#This file is the author's own work and represents their interpretation of the#
#song. You may only use this file for private study, scholarship, or research.#
#-----------------------------------------------------------------------------#

Date: Fri, 3 Apr 1998 15:48:22 -0600
From: ponies2@computek.net (Keith Barron)
Subject: New Damage - Soundgarden



New Damage
Tuning - DADGBE


            Intro and Verse:
     
G|-------0-||--------------------0-|-------------------0--||      
D|-------0-||o-------------------0-|-------------------0-o||      
A|---------||o---------------------|---------------------o||      
D|-2b3r2---||--5---4---3---2b3r2---|--5---4---3--2b3r2----||      

I am not sure about the open notes...(they ARE wrong)

[ Tab from: http://www.guitartabs.cc/tabs/s/soundgarden/new_damage_tab.html ]
Chorus:
||--------------------|-------------------|-------------------|
||--------------------|-------------------|-------------------|
||o-------------------|-------------------|-------------------|
||o-/12-12-12-12-12---|-/11-11-11-11-11---|-/10-10-10-10-10---|
||--------------------|-------------------|-------------------|
||--/12-12-12-12-12---|-/11-11-11-11-11---|-/10-10-10-10-10---|

                 Post Chorus:
|------------|| |----------------------------------------------|
|------------|| |----------------------------------------------|
|-----------o|| |----------------------------------------------|
|-/8---/10--o|| |-------10-------10-------10-------10-------10-|
|------------|| |----10-------10-------10-------10-------10----|
|-/8---/10---|| |-10-------10-------10-------10-------10-------|

Bridge:
||-----------------||---------------------------|
||-----------------||---------------------------|
||o---------------o||---------------------------|
||o--7-/8-/10--6--o||-8-/9--7-/8-/9--7-/8-/9----|
||-----------------||---------------------------|
||---7-/8-/10--6---||-8-/9--7-/8-/9--7-/8-/9----|
Comments