Soundgarden - Never The Machine Forever Chords & Tabs

 

Never The Machine Forever Chords & Tabs

Soundgarden Chords & Tabs

Version: 1 Type: Bass Tab 0 ratings
1 star 2 stars 3 stars 4 stars 5 stars
comments

Never The Machine Forever Bass Tab

Soundgarden- Never the Machine Forever
Tabbed by a member of the Bass Tab Archive Tabbing army


Tuning   CGCG

Time Signature:  9/8                  Verse Riff
G|-------------------------------------------------------------------|
C|-------------------------------------------------------------------|
G|-------------------------------3--3---3--------------------------|
C|----0--0----0----3--3---3-----------------5--5----5----3---|


                          Chorus Riff  “Get up…”
G|----5--5---5---------------3--3---3-------------------|
C|-----------------------------------------5--5---5--------|
G|-----------------------------------------------------------|
C|-----------------3--3---3---------------------------3---|
[ Tab from: http://www.guitartabs.cc/tabs/s/soundgarden/never_the_machine_forever_btab.html ]
                Bridge Riffs  “ Forever means…”
G|------------------------------------------------------------|
C|------------------------------------------------------------|
G|----5--5---5----------------------------------------------|
C|------------------------------------------------------------|

G|----9-/-10-\-9--------------------------------------|
C|-------------------------------------------------------|
G|----9-/-10-\-9--------------------------------------|
C|-------------------------------------------------------|

         Interlude Riff
G|-----------------------------------------------|
C|----------------12--10----------------10--|
G|--------------------------12--9--12--------|
C|--0---0---0----------------------------------|


This Riffs are approximate.  Ben Sheperd has a tendency to follow the guitar
parts.
Remember with the Rythem, it’s not a triplet feel, it’s a eighth note
pattern. It’s easily divided into 2-2-3.

Comments