Soundgarden - My Wave Chords & Tabs

 

My Wave Chords & Tabs

Soundgarden Chords & Tabs

Version: 4 Type: Tab

My Wave Tab

   
-----------------------------------------------------------------------------
			     My Wave - Soundgarden
-----------------------------------------------------------------------------
Tabbed by: Alex 
Email: axleskate@gmail.com

Tuning:EADGBE


E|---------------------------------------------------------------0~--------|
B|---------------------------------------------------------------0~--------|
G|-------------------------7(b)---------7(b)---------7(b)--------1~--------|
D|--5-7-7---5-7-7---5-7-7--------5-7-7--------5-7-7--------5-7-7-2~--------|
A|--5-7-7---5-7-7---5-7-7--------5-7-7--------5-7-7--------5-7-7-2~--------|
E|--3-5-5---3-5-5---3-5-5--------3-5-5--------3-5-5--------3-5-5-0~--------|

^The Intro

E|-0--------------|
B|-0--------------|
G|-1--------------|
D|-2--5-5-5-7-7---|
A|-2--5-5-5-7-7---|
E|-0--3-3-3-5-5---|

^After Intro

E|-0--------------|
B|-0--------------|
G|-1--------------|
D|-2--5-5-5-7-7---|
A|-2--5-5-5-7-7---|
E|-0--3-3-3-5-5---|

^Verse

E|------------------------|
B|------------------------|
G|--7(b)7(b)7(b)----------|
D|----------------5-7-7---|
A|----------------5-7-7---|
E|----------------3-5-5---|

^Chorus

E|-----------------|
B|-5-4-------------|
G|------4--4--6-4--|
D|-----------------|
A|-----------------|
E|-----------------|

^”Keep It Off My Wave” Riff
[ Tab from: http://www.guitartabs.cc/tabs/s/soundgarden/my_wave_tab_ver_4.html ]
E|------------------------------------|
B|-----------------------7-9(b)-9-7---|
G|-----7-9(b)-9-7---------------------|
D|-5-5--------------7-7---------------|
A|-5-5--------------7-7---------------|
E|-3-3--------------5-5---------------|

^”My Wave, My Wave…!” Riff 





E|--0--0-0-0--0—-0~----|--------------------------------|
B|-10-101010-10—-9~----|--------------------------------|
G|---------------------|-7-7--7—9(b)--7-7--7-9(b)-9(b)--|
D|---------------------|--------------------------------|
A|---------------------|--------------------------------|
E|---------------------|--------------------------------|
   ^Before Verse After     ^Play this part 3x, then start the verse right after           
My Wave Part (Riff #6)              the last note    (Riff #7)

The Order
---------------
Intro (1x)
After Intro (8x)
Verse (12x) (For 3 verses)
Chorus (4x)
Verse (4x) (No Vocals)
Verse (12x) (For 3 verses w/vocals)
Chorus (4x)
“Keep It Off My Wave” Riff (8x)
“My Wave, My Wave…!” Riff (1x)
“Keep It Off My Wave” Riff (2x)
Riff # 6 (1x)
Riff # 7 (3x)
Verse (12x) (For 3 verses)
Chorus (4x)
“Keep It Off My Wave” Riff (8x)
“My Wave, My Wave…!” Riff (1x)
“Keep It Off My Wave” Riff (2x)
“My Wave, My Wave…!” Riff (1x)
“Keep It Off My Wave” Riff (4x)
Riff # 6 (1x)
“Keep It Off My Wave” Riff Till The End

| /  slide up
| \  slide down
| h  hammer-on
| p  pull-off
| ~  vibrato
| +  harmonic
| x  Mute note
=============================================================================