Soundgarden - My Wave Chords & Tabs

 

My Wave Chords & Tabs

Soundgarden Chords & Tabs

Version: 3 Type: Tab 0 ratings
1 star 2 stars 3 stars 4 stars 5 stars
comments

My Wave Tab

E|-----------------------------------------------------------------------|
B|-----------------------------------------------------------------------|
G|----------------------------7-----------7-----------7------------------|
D|-----------------------------------------------------------------------|
A|-5--7-7----5--7-7----5--7-7------5--7-7------5--7-7------5--7-7--------|
e|-3--5-5----3--5-5----3--5-5------3--5-5------3--5-5------3--5-5--------|


E|----------------|
B|----------------|
G|----------------|
D|----------------|  Repeat a bunch of times.
A|-2--5-5-5--7-7--|
e|-0--3-3-3--5-5--|    The last time you go into this:


E|-------------|
B|-------------|
G|-7--------7--|
D|-------------|  Repeat 4 times. Then go back into the above
A|---5--7-7----|
e|---3--5-5----|


Thats all i can get right now. This is my 1st tab. I LOVE Soundgarden!!
[ Tab from: http://www.guitartabs.cc/tabs/s/soundgarden/my_wave_tab_ver_3.html ]
Comments