Soundgarden - My Wave Chords & Tabs

 

My Wave Chords & Tabs

Soundgarden Chords & Tabs

Version: 1 Type: Tab 0 ratings
1 star 2 stars 3 stars 4 stars 5 stars
comments

My Wave Tab

   
#----------------------------------PLEASE NOTE---------------------------------#
#This file is the author's own work and represents their interpretation of the #
#song. You may only use this file for private study, scholarship, or research. #
#------------------------------------------------------------------------------##
My wave
by soundgarden
Transcribed by kelly kristek.
questions comments corrections.. mail to kkr@connected.com

--------------------------------------------------------------------



This is probably not exact and it is certainly not all of it..
I didnt get the end solo or the other solos at that part but this
is pretty much how i hear it..its not on any timming so you'll have
to listen to the song..hope it works out ok..



                               Reapeat this.    riff two
e:-----------------|----------|---------------|-----------------|
B:-----------------|----------|---------------|-5-4-------------|
G:-----------------|--------7-|---------------|-----4-4-4-6-4-4-|
D:---5--7-7--5--7-7|--5/7-7---|-5/7-7--2--5-5-|-----------------|
A:---5--7-7--5--7-7|--5/7-7---|-5/7-7--2--5-5-|-----------------|
E:---5--7-7--5--7-7|--5/7-7---|-5/7-7--2--5-5-|-----------------|


                                             

             let ring..
e:--0--0-0-0--0--0-----|--------------------|
B:-10-101010-10--9-----|--------------------|
G:---------------------|-7-7--7--9-10-9-9-9-|
D:---------------------|--------------------|
A:---------------------|--------------------|
E:---------------------|--------------------|


  My wave My wave My Wave My waaaaaave 
[ Tab from: http://www.guitartabs.cc/tabs/s/soundgarden/my_wave_tab.html ]
     this then back to riff 2
e:------------------------------------|
B:-----------------------7-9-10--9-9-9|
G:-----7-9-10-9-9-9-------------------|
D:-5-5--------------7-7---------------|
A:-5-5--------------7-7---------------|
E:-5-5--------------7-7---------------|


From: ffm@werple.apana.org.au (John Fitzpatrick)

Here's another off 'SUPERUNKNOWN'

Send questions, comments or requests to Anthony Fitzpatrick at:

 ffm@werple.apana.org.au

MY WAVE by Soundgarden

from Superunknown

Tuning(low to high:E,E(down),B(down),B(up),B,B(down))

   G5  A5
B------------|---------------3-
B------------|---------------3-
B------------|---------------3-
B--3----5--5-|--3----5--5------ X 3
E--3----5--5-|--3----5--5------
E--3----5--5-|--3----5--5------    



B-------------------------
B-------------------------
B-------------------------
B--0----3----3----3--5--5- X 4
E--0----3----3----3--5--5-
E--0----3----3----3--5--5-


B-------------------------
B-------------------------
B--0----3----3----3--5--5-
B--0----3----3----3--5--5- X 4
E--0----3----3----3--5--5-
E--0----3----3----3--5--5-


B----------------2-p-0----
B----4-p-0-----0-------0--
B--5---------0------------
B------------------------- X 7
E-------------------------
E-------------------------


B---------------------------------------------------------2-p-0---
B--3----3--5-b-r(5)--3-------6--8-b-r(8)--6----4-p-0----0-------0-
B--3----3--5-b-r(5)--3-------6--8-b-r(8)--6--5--------0-----------
B--3----3--------------3/6---6------------------------------------
E--3----3--------------3/6---6------------------------------------
E--3----3--------------3/6---6------------------------------------


B------------0-2-p-0---0--10-10-10-10--10-----9-
B----4-p---0---------0----10-10-10-10--10-----9-
B--5-----0----------------10-10-10-10--10-----9-
B--------------------------5--5--5--5---5-----0-
E--------------------------5--5--5--5---5-----0-
E--------------------------5--5--5--5---5-----0-


that's it
enjoy
 L8er




Comments