Soundgarden - Mailman Chords & Tabs

 

Mailman Chords & Tabs

Soundgarden Chords & Tabs

Version: 5 Type: Tab 0 ratings
1 star 2 stars 3 stars 4 stars 5 stars
comments

Mailman Tab

   
Mailman

Soundgarden

Tabbed by:Brownbear93

Tuning: C G D G B E



Intro:
|--10-10-10-10-10-10-10\----|
|--10-10-10-10-10-10-10\----|
|--12-12-12-12-12-12-12\----|
|--13-13-13-13-13-13-13\----|
|--10-10-10-10-10-10-10\----|
|--10-10-10-10-10-10-10\----|


1st Solo:
G2: 
|---------------------------------------------------------------------------------------------------|
|--5--------------x---------------------------------------------------------------------------------|
|--7b------r--5-5-x--5-5-5-x-----5---------------------------5-5-5~----8-8-8-8-8\--7b-7b----r--5-5~-|
|--------------------------x-3/5---3-2-1----b---------r---------------------------------------------|
|----------------------------3/5--------------------------------------------------------------------|
|---------------------------------------------------------------------------------------------------|



Main Riff x3
|----------------------------------------------------------------------|
|----------------------------------------------------------------------|
|----------------------------------------------------------------------|
|--5--------5--------5---10-9-8\---5--------5--------5-----------------|
|--5--------5--------5---10-9-8\---5--------5--------5-------3b`-------|
|--0-0----0---0----0---0-----------0-0----0---0----0---0---0-----4-3~--|

Ending 1 and 2:
|-------------------10-10-10-10-10\---------------------------------|       
|-------------------10-10-10-10-10\---------------------------------|
|-------------------12-12-12-12-12\---------------------------------| 
|--5--------5-------13-13-13-13-13\---5--------5------------3/5-----|
|--5--------5-------10-10-10-10-10\---5--------5------------3/5-----|
|--0-0----0---0---0-10-10-10-10-10\---0-0----0---0----0-5-3---------|

Ending 3:
|--------------------10-10-10-10-10\-----------------|
|--------------------10-10-10-10-10\-----------------|
|--------------------12-12-12-12-12\-----------------|
|--5--------5--------13-13-13-13-13\---5--------5----|
|--5--------5--------10-10-10-10-10\---5--------5--0-|
|--0-0----0---0----0-10-10-10-10-10\---0-0----0----0-|




Chorus:
|------------------------------------------------------------------|
|------------------------------------------------------------------|
|--------------1--/3-3-0-0--x-5-0--------------1--/3-3-0-0--x-5-0--|
|--3h5-3-3-x---1--/3-3-0-0--x-5-0--3h5-3-3-x---1--/3-3-0-0--x-5-0--|
|--3h5-3-3-x---1--/3-3-0-0--x-5-0--3h5-3-3-x---1--/3-3-0-0--x-5-0--|
|--3h5-3-3-x-----------------------3h5-3-3-x-----------------------|

|----------------------------------|
|----------------------------------|
|--------------1--/3-3-0-0-0-0-----|
|--3h5-3-3-x---1--/3-3-0-0-0-0-----|
|--3h5-3-3-x---1--/3-3-0-0-0-0-----|
|--3h5-3-3-x-----------------------|



Main Riff:x3

G2:
|-------------------------------------------|
|--3--------------------------3-------------|
|--5b-------r~----------------5b--------r~--|
|-------------------------------------------|
|-------------------------------------------|
|-------------------------------------------|
 

Chorus

G2
|--------------------------------|
|--------------------------------|x3
|--5---5-5---5-----5---5-5-5-----|
|----8-----8-----8---8-------5---|
|--------------------------------|
|--------------------------------|


Post Chorus:
G1
|-------------------------------------|
|-------------------------------------|
|-------------------------------------|x4
|--5--------5--------5--------3-2-1---|
|--5--------5--------5------5-3-2-1---|
|--0-0----0---3----3---5----5---------|
[ Tab from: http://www.guitartabs.cc/tabs/s/soundgarden/mailman_tab_ver_5.html ]
G2
|-------------------------------------------|
|--3--------------------------3-------------|
|--5b-------r~----------------5b--------r~--|
|-------------------------------------------|
|-------------------------------------------|
|-------------------------------------------|


Bridge:
G1
|-------------------8-8\---------------------------8-8\---------------------------8-8\---------|
|-------------------8-8\---------------------------8-8\---------------------------8-8\---------|
|-------------------8-8\---------------------------8-8\---------------------------8-8\---------|
|-5--------5--------8-8\---------5--------5--------8-8\---------5--------5--------8-8\---------|
|-5--------5--------8-8\---------5--------5--------8-8\---------5--------5--------8-8\---------|
|-0-0----0---0----0------4-3-3~--0-0----0---0----0------4-3-3~--0-0----0---0----0------4-3-3~--|

|-------------------10-10-10-10-10-10-10\--|
|-------------------10-10-10-10-10-10-10\--|
|-------------------12-12-12-12-12-12-12\--|
|-5--------5--------13-13-13-13-13-13-13\--|
|-5--------5--------10-10-10-10-10-10-10\--|
|-0-0----0---0----0-10-10-10-10-10-10-10\--|


Synth?? part:
|------------------------------------------------------------------------------------------|
|------------------------------------------------------------------------------------------|
|---5-----8/10---12------5------8/10---12------5------8/10---12------5------15~----19b\----|
|------------------------------------------------------------------------------------------|
|------------------------------------------------------------------------------------------|
|------------------------------------------------------------------------------------------|


Main Riff:x2


chorus


Post Chorus: (backing for Solo)
G1
|-------------------------------------|
|-------------------------------------|
|-------------------------------------|x6
|--5--------5--------5--------3-2-1---|
|--5--------5--------5------5-3-2-1---|
|--0-0----0---3----3---5----5---------|

|-----8-8\--------------|
|-----8-8\--------------|
|-----8-8\--------------|
|-----8-8\----------5-5-|
|-----8-8\----------5-5-|
|---0-------4-3-3~--0-0-|


Solo:
G2
|-<12>--------------------------------0-----------------------------------|
|-<12>----------------------11tr--\-x-0-x-------------x-3-----------------|
|-<12>--7--9---12\----------12tr--\-x-0-x-x-5-x-x-5-0-x-5b----(5)-r----3--|
|-------7-------------------------------x-x-5-x-x-5-0----------------5----|
|--------------------x\---------------------------------------------------|
|--------------------x\---------------------------------------------------|

|------------------------------------------------------------------------------------|
|------------------------------------------------------------------------------------|
|--7b---rb--rb-x-3h5p3br~-x---------x-------x-3-5-5b-x-x-3-5p3---5p3---3h5p3---5b----|
|-------------------------x-x--5-3b-x-3-5-x-x------------------5-----5-------5-------|
|---------------------------x-------------x------------------------------------------|
|------------------------------------------------------------------------------------|

|-------------------------------------------------0---0---0----------------------------------------|
|-x-x---x-x-x--13b--rbrb-10-13p10h13p10h13p10-13-15b-16b-17b--17tr-x-x-3--3------------------------|
|-x-x-0-x-x-x-------------------------------------------------15tr-x-x-5b-5b-7b----5b-5b\----------|
|-x-x-0--------------------------------------------------------------------------------------------|
|--------------------------------------------------------------------------------------------------|
|--------------------------------------------------------------------------------------------------|

************************************

| /   slide up
| \   slide down
| h   hammer-on
| p   pull-off
| ~   vibrato
| +   harmonic
| x   Mute note
| B   Bend
| b`  quarter bend
| pb  Pre-bend
| br  Bend release
| pbr Pre-bend release
| brb Bend release bend
| ()  strike note while string is bent
| tr  tremelo pick
| <>  natural harmonic
************************************
Comments