Soundgarden - Kingdom Of Come Chords & Tabs

 

Kingdom Of Come Chords & Tabs

Soundgarden Chords & Tabs

Version: 1 Type: Tab 0 ratings
1 star 2 stars 3 stars 4 stars 5 stars
comments

Kingdom Of Come Tab

#----------------------------------PLEASE NOTE--------------------------------#
#This file is the author's own work and represents their interpretation of the#
#song. You may only use this file for private study, scholarship, or research.#
#-----------------------------------------------------------------------------#

Date: Sat, 28 Mar 1998 13:12:46 PST
From: "Keith D. Barron II" 
Subject: Kingdom of Come - Soundgarden

Kingdom of Come"
Soundgarden
Album: Fopp

Normal Tuning

Verse:

So you think I got something on you...

d--------------------------|--------------------------|
a--------------------------|--------------------------|
e--5--5--3--2--5--5--3--2--|--5--5--3--2--5--5--3--2--|

I bet I know what you're gonna do...

e--------5-----------5-----|--------5-----------5-----|
b--------5-----------5-----|--------5-----------5-----|
g--x--x--6--x--x--x--6--x--|--x--x--6--x--x--x--6--x--|
d--x--x--7--x--x--x--7--x--|--x--x--7--x--x--x--7--x--|
a--x--x--7--x--x--x--7--x--|--x--x--7--x--x--x--7--x--|
e--x--x--5--x--x--x--5--x--|--x--x--5--x--x--x--5--x--|

d--------------------------|--------------------------|
a--------------------------|--------------------------|
e--5--5--3--2--5--5--3--2--|--5--5--3--2--5--5--3--2--|          


e--------5-----------5-----|--------5-----------5-----|
b--------5-----------5-----|--------5-----------5-----|
g--x--x--6--x--x--x--6--x--|--x--x--6--x--x--x--6--x--|
d--x--x--7--x--x--x--7--x--|--x--x--7--x--x--x--7--x--|
a--x--x--7--x--x--x--7--x--|--x--x--7--x--x--x--7--x--|
e--x--x--5--x--x--x--5--x--|--x--x--5--x--x--x--5--x--|

[ Tab from: http://www.guitartabs.cc/tabs/s/soundgarden/kingdom_of_come_tab.html ]
b--------------------------|--------------------------|-2--------
g--------------------------|--------------------------|-2--------
d--------------------------|--------------------------|-2--------
a--------------------------|--------------------------|-0--------
e--5--5--3--2--5--5--3--2--|--5--5--3--2--5--5--3--2--|----------


Pre-chorus:

Fill your head with crazy sounds...

g--------------------------|-----------------------------|
d--------------------------|-----------------------------|
a-----0--3b-------0--3b----|-----0--3b--0----------------|
e--5---------5-------------|--5--------------------------|


g--------------------------|-----------------------------|
d--------------------------|-----------------------------|
a-----0--3b-------0--3b----|-----0--3b--0----------------|
e--5---------5-------------|--5--------------------------|


Chorus:

It ain't as pretty coming out...

b--------------------------|------------------------|  
g--5--5--5--5--5--5--5--5--|--5--6----7----7--7--7--|
d--5--5--5--5--5--5--5--5--|--5--6----7----7--7--7--|
a--3--3--3--3--3--3--3--3--|--3--4----5----5--5--5--|
e--------------------------|------------------------|


e------------------------|-----------------------|---------0-----
b------------------------|-----------------------|---------0-----
g--7--8----9----9--9999--|-9--8----9----9--9999--|--9--8---9-----
d--7--8----9----9--9999--|-9--8----9----9--9999--|--9--8---9-----
a--5--6----7----7--7777--|-7--6----7----7--7777--|--7--6---7-----
e------------------------|-----------------------|---------------

Hold the last notes until the beginning of the 2nd verse and repeat the 
whole thing. Then play some open notes and have alot of feedback and 
then the solo comes.  I don't know that part. But then the pre-chorus 
comes again and the chorus. And it ends.
Comments