Soundgarden - Kickstand Chords & Tabs

 

Kickstand Chords & Tabs

Soundgarden Chords & Tabs

Version: 1 Type: Tab 0 ratings
1 star 2 stars 3 stars 4 stars 5 stars
comments

Kickstand Tab

----------------------------------PLEASE NOTE--------------------------------#
#This file is the author's own work and represents their interpretation of the#
#song. You may only use this file for private study, scholarship, or research.#
#-----------------------------------------------------------------------------#

Kickstand -- Soundgarden
From: Keith Barron 
 
I don't remember if I already posted this.
Here's a song about a kickstand, I think. :)

Verse:
G|-------------|-------------|-7--5-5-5--7-|-5--5-5-5-5--7-7-|
D|-5--5--5-5-5-|-8--8--8-8-8-|-7--5-5-5--7-|-5--5-5-5-5--7-7-|
A|-5--5--5-5-5-|-8--8--8-8-8-|-5--5-5-5--5-|-5--5-5-5-5--5-5-|
D|-5--5--5-5-5-|-8--8--8-8-8-|-------------|-----------------|

G|-------------|-------------|-7--5-5-5--7-|-5--5-5-5-5--7-7-|
D|-5--5--5-5-5-|-8--8--8-8-8-|-7--5-5-5--7-|-5--5-5-5-5--7-7-|
A|-5--5--5-5-5-|-8--8--8-8-8-|-5--5-5-5--5-|-5--5-5-5-5--5-5-|
D|-5--5--5-5-5-|-8--8--8-8-8-|-------------|-----------------|

G|-------------|-------------|-------------|-----------------|
D|-5--5--5-5-5-|-8--8--8-8-8-|-7--9-9-9--7-|-9--9-9-9-9--7-7-|
A|-5--5--5-5-5-|-8--8--8-8-8-|-7--7-7-7--7-|-7--7-7-7-7--7-7-|
D|-5--5--5-5-5-|-8--8--8-8-8-|-7--7-7-7--7-|-7--7-7-7-7--7-7-|

 
G|-------------|------------------|
D|-5--5--5-5-5-|-10--10--10-10-10-|
A|-5--5--5-5-5-|-10--10--10-10-10-|
D|-5--5--5-5-5-|-10--10--10-10-10-|

G|-------------|------------------||
D|-7--7--7-7-7-|-10--10--10-10-10-||
A|-7--7--7-7-7-|-10--10--10-10-10-||
D|-7--7--7-7-7-|-10--10--10-10-10-||
[ Tab from: http://www.guitartabs.cc/tabs/s/soundgarden/kickstand_tab.html ]
Pre-chorus (so do it right)
G|-7--5-5-5-7-|-5--5-5-5-5-7-7-|-7--5-5-5-7-|-5--5-5-5-5-7-7-||
D|-7--5-5-5-7-|-5--5-5-5-5-7-7-|-7--5-5-5-7-|-5--5-5-5-5-7-7-||
A|-5--5-5-5-5-|-5--5-5-5-5-5-5-|-5--5-5-5-5-|-5--5-5-5-5-5-5-||
D|------------|----------------|------------|----------------||


Chorus: (Come stand me up)      Play 3 times
G||------------------------------||
D||o-12\---7--7--5-----10-10-10-o||
A||o-12\---7--7--5-----10-10-10-o||
D||--12\---7--7--5-----10-10-10--||

Last verse:
G|-------------|-------------|-----------------|---------------|
D|-5--5--5-5-5-|-8--8--8-8-8-|------9h10p9---9-|---9h10p9---9--|
A|-5--5--5-5-5-|-8--8--8-8-8-|----8--------8---|-8--------8----|
D|-5--5--5-5-5-|-8--8--8-8-8-|-0---------------|---------------|

G|-------------|-------------|-----------------|---------------|
D|-5--5--5-5-5-|-8--8--8-8-8-|------9h10p9---9-|---9h10p9---9--|
A|-5--5--5-5-5-|-8--8--8-8-8-|----8--------8---|-8--------8----|
D|-5--5--5-5-5-|-8--8--8-8-8-|-0---------------|---------------|


G||--------------|-------------|
D||o-5--5--5-5-5-|-8--8--8-8-8-|
A||o-5--5--5-5-5-|-8--8--8-8-8-|
D||--5--5--5-5-5-|-8--8--8-8-8-|


                                          Play 3 times
E||------------------|-------------------------||               
B||------------------|---------------10-10-10--||
G||o-----------------|---------------10-10-10-o||
D||o------9h10p9---9-|---9h10p9---9--9--9--9--o||
A||-----8--------8---|-8--------8----8--8--8---||
D||------------------|-------------------------||


B||--10-10-10---10-10-10--|-------------||
G||--10-10-10---10-10-10--|-------------||
D||--9--9--9----9--9--9---|--12\--------||
A||--8--8--8----8--8--8---|--12\--------||
D||-----------------------|--12\--------||
Comments