Soundgarden - Kickstand Chords & Tabs

 

Kickstand Chords & Tabs

Soundgarden Chords & Tabs

Version: 1 Type: Bass Tab 0 ratings
1 star 2 stars 3 stars 4 stars 5 stars
comments

Kickstand Bass Tab

   
Song: Kickstand
Artist: Soundgarden
Album: Superunknown
Tabbed by: Jase Warner (www.erikk.co.uk)

Standard Tuning (E,A,D,G)

First Verse:

G|-----------------|------------------|------------------|------------------|
D|*----------------|--8--8---8--8--8--|12-12--10-10p12-12|10-10-10-10p12-12*|
A|*10-10--10-10-10-|------------------|------------------|-----------------*|
E|-----------------|------------------|------------------|------------------|

G|-----------------|------------------|------------------|------------------|
D|*----------------|--8--8---8--8--8--|12-12--10-10p12-12|10-10-10-10p12-12*|
A|*10-10--10-10-10-|------------------|------------------|-----------------*|
E|-----------------|------------------|------------------|------------------|

G|-----------------|------------------|------------------|------------------|
D|*----------------|--8--8---8--8--8--|7----7---7--------|-7-9-7-----7-----*|
A|*10-10--10-10-10-|------------------|---0---0---0-4-5-7|--------0--------*|
E|-----------------|------------------|------------------|------------------|

G|-----------------|------------------|------------------|------------------|
D|*----------------|--10-10--10-10-10-|--7--7---7--7--7--|--10-10--10-10-10*|
A|*10-10--10-10-10-|------------------|------------------|-----------------*|
E|-----------------|------------------|------------------|------------------|

Pre-Chorus

G|-----------------|------------------|------------------|------------------|
D|12-12-10-10p12-12|10-10-10-10p12-12-|-12-12-10-10p12-12|10-10-10-10p12-12-|
A|-----------------|------------------|------------------|------------------|
E|-----------------|------------------|------------------|------------------|

Chorus

G|-------------------------|-------------------------|-------------------------|
D|-12--#-------------------|-12--#-------------------|-12--#-------------------|
A|------12#--10#--10~------|------12#--10#--10~------|------12#--10#--10~------|
E|-------------------------|-------------------------|-------------------------|

Second Verse:

G|-----------------|------------------|------------------|------------------|
D|*----------------|--8--8---8--8--8--|12-12--10-10p12-12|10-10-10-10p12-12*|
A|*10-10--10-10-10-|------------------|------------------|-----------------*|
E|-----------------|------------------|------------------|------------------|
[ Tab from: http://www.guitartabs.cc/tabs/s/soundgarden/kickstand_btab.html ]
G|-----------------|------------------|------------------|------------------|
D|*----------------|--8--8---8--8--8--|12-12--10-10p12-12|10-10-10-10p12-12*|
A|*10-10--10-10-10-|------------------|------------------|-----------------*|
E|-----------------|------------------|------------------|------------------|

G|-----------------|------------------|------------------|------------------|
D|*----------------|--8--8---8--8--8--|7----7---7--------|-7-9-7-----7-----*|
A|*10-10--10-10-10-|------------------|---0---0---0-4-5-7|--------0--------*|
E|-----------------|------------------|------------------|------------------|

G|-----------------|------------------|------------------|------------------|
D|*----------------|--10-10--10-10-10-|--7--7---7--7--7--|--10-10--10-10-10*|
A|*10-10--10-10-10-|------------------|------------------|-----------------*|
E|-----------------|------------------|------------------|------------------|

Pre-Chorus

G|-----------------|------------------|------------------|------------------|
D|12-12-10-10p12-12|10-10-10-10p12-12-|-12-12-10-10p12-12|10-10-10-10p12-12-|
A|-----------------|------------------|------------------|------------------|
E|-----------------|------------------|------------------|------------------|

Chorus

G|-------------------------|-------------------------|-------------------------|
D|-12--#-------------------|-12--#-------------------|-12--#-------------------|
A|------12#--10#--10~------|------12#--10#--10~------|------12#--10#--10~------|
E|-------------------------|-------------------------|-------------------------|

Third Verse:

G|-----------------|------------------|-----4h5-4--4-4h5-4----4--|
D|*----------------|--8--8---8--8--8--|-0--0---5--------5---0---*|
A|*10-10--10-10-10-|------------------|-------------------------*|
E|-----------------|------------------|--------------------------|

G|-----------------|------------------|-----4h5-4--4-4h5-4----4--|
D|*----------------|--8--8---8--8--8--|-0--0---5--------5---0---*|
A|*10-10--10-10-10-|------------------|-------------------------*|
E|-----------------|------------------|--------------------------|

G|-----------------|------------------|-----4h5-4--4-4h5-4----4--|
D|*----------------|--8--8---8--8--8--|-0--0---5--------5---0---*|
A|*10-10--10-10-10-|------------------|-------------------------*|
E|-----------------|------------------|--------------------------|

Outro:

G|-------4h5-4--4-4h5-4--|-------4h5-4--4-4h5-4--|
D|000#--0---5--------5--*|000#--0---5--------5--*|
A|*---------------------*|*---------------------*|
E|-----------------------|-----------------------|

G|--------------------|
D|*------------------*|
A|*111-111-111--5~/--*|
E|--------------------|
Comments