Soundgarden - Karaoke Chords & Tabs

 

Karaoke Chords & Tabs

Soundgarden Chords & Tabs

Version: 1 Type: Bass Tab 0 ratings
1 star 2 stars 3 stars 4 stars 5 stars
comments

Karaoke Bass Tab

Soundgarden
Karaoke

Intro
|----------------------------|
|----------------------------|
|----------------------------|
|-7777776555555433333333-----|

Verse      (4x)
|----------------------------|
|----------------------------|
|-------0-5-4-3--------------|
|-0-2-3---------4------------|

Pre-chorus (4x)
|----------------------------|
|----------------------------|
|---------4---3-3h4p3--------|
|-2-2-0-0---4---------5-4----|
[ Tab from: http://www.guitartabs.cc/tabs/s/soundgarden/karaoke_btab.html ]
Chorus      (3x)
|-----------------------|----|
|-----------------------|----|
|-2-0-1-----------------|-4 5|
|-------2-3-3-3-3-3-3-3-|0---|

Interlude
|----------------------------|
|----------------------------|
|----------------------------|
|-4------(4)-------(4)-------|

Order:
Intro
Verse (twice)
Pre-chorus
Verse
Pre-chorus
Chorus
Verse
Pre-chorus
Chorus
Verse
Interlude
Chorus
Intro (Outro, I guess) (twice)

Transcribed by Jimi Connolly (Draco900@aol.com). 
Comments