Soundgarden - Jesus Christ Pose Chords & Tabs

 

Jesus Christ Pose Chords & Tabs

Soundgarden Chords & Tabs

Version: 3 Type: Tab 0 ratings
1 star 2 stars 3 stars 4 stars 5 stars
comments

Jesus Christ Pose Tab

   
                              JESUS CHRIST POSE
                           As recorded by Soundgarden
                      (From the 1991 Album BADMOTORFINGER)


Gtr I (D A D G B E) - 'Guitar 1'
Gtr II (D A D G B E) - 'Guitar 2'

  Moderately Q=134
  N.C.
 4/4
  Gtr I
   Q.    Q.    +E   E    +W
|-22---------------23-|-(23)--------|
|-------23----(23)----|-------------|
|---------------------|-------------|
|---------------------|-------------|
|---------------------|-------------|
|---------------------|-------------|


   +H       Q.     E     +Q.    +Q.    +E   E    +W
|-(23)----(23)---(23)-|-(23)---(23)---(23)-17-|-(17)----|
|----------19-----20--|-(20)---(20)---(20)-19-|-(19)----|
|---------------------|-----------------------|---------|
|---------------------|-----------------------|---------|
|---------------------|-----------------------|---------|
|---------------------|-----------------------|---------|


   W           +W            +W            +W
|-28--------|-(28)--------|-(28)--------|-(28)----|
|-----------|-------------|-------------|---------|
|-----------|-------------|-------------|---------|
|-----------|-------------|-------------|---------|
|-----------|-------------|-------------|---------|
|-----------|-------------|-------------|---------|


   W           +W            +W            +W
|-----------|-------------|-------------|---------|
|-16--------|-(16)--------|-(16)--------|-(16)----|
|-----------|-------------|-------------|---------|
|-----------|-------------|-------------|---------|
|-----------|-------------|-------------|---------|
|-----------|-------------|-------------|---------|


    W            +W            +W            +W
|-(28)--------|-(28)--------|-(28)--------|-(28)----|
|-(16)--------|-(16)--------|-(16)--------|-(16)----|
|-------------|-------------|-------------|---------|
|-------------|-------------|-------------|---------|
|-------------|-------------|-------------|---------|
|-------------|-------------|-------------|---------|


   Intro
    N.C.
    Gtr I
          |--3--|                  |--3--|
    H     S  S  S E  Q       H     S  S  S E  Q      8x
||-------------------------|-------------------------||
||o------------------4b5---|------------------4b5---o||
||--------3h=5p=3-0--------|-------3h=5p=3-0---------||
||-------------------------|-------------------------||
||o------------------------|------------------------o||
||--0----------------------|-0-----------------------||
|
|   Gtr II
|         |--3--|                  |--3--|
|   H     S  S  S E  Q       H     S  S  S E  Q      8x
||-------------------------|-------------------------||
||o-----------------16b17--|-----------------16b17--o||
||-------15h17p15-0--------|------15h17p15-0---------||
||-------------------------|-------------------------||
||o------------------------|------------------------o||
||--0----------------------|-0-----------------------||


    N.C.
    Gtr I
    PM----------------------------------------------------------|
    E S S S S S S S S S S S S S S   E S S S S S S S S S S S S S S
||--------------------------------|-------------------------------|
||o-------------------------------|-------------------------------|
||--------------------------------|-------------------------------|
||--------------------------------|-------------------------------|
||o-------------------------------|-------------------------------|
||--0-0-0-8-8-0-0-0-8-8-8-7-8-8-8-|-0-0-0-8-8-0-0-0-8-8-8-7-8-8-8-|


  N.C.
  PM----------------------------------------------------------|
  E S S S S S S S S S S S S S S   E S S S S S S S S S S S S S S
|-------------------------------|--------------------------------||
|-------------------------------|-------------------------------o||
|-------------------------------|--------------------------------||
|-------------------------------|--------------------------------||
|-------------------------------|-------------------------------o||
|-0-0-0-6-6-0-0-0-6-6-6-5-6-6-6-|-0-0-0-6-6-0-0-0-6-6-6-5-6-6-6--||


    N.C.
    Gtr I
    PM------------------------------------------------------------------|
    E S S S S S S S S S S S S S S    E  S S S S S S  S  S S S S S   S   S
||--------------------------------|---------------------------------------|
||o-------------------------------|---------------------------------------|
||--------------------------------|---------------------------------------|
||--------------------------------|---------------------------------------|
||o-------------------------------|---------------------------------------|
||--0-0-0-8-8-0-0-0-8-8-8-7-8-8-8-|--0--0-0-8-8-0-0--0--8-8-8-7-8---8---8-|
|
|   Gtr II
|   ~~~~~~~~~~~~~~~~~~~~~~~~~~~~~~~~~~~~~~~~~~~~~~~~~~~~
|   W                               +H               Q.            +E
||--------------------------------|---------------------------------------|
||o-------------------------------|---------------------------------------|
||--------------------------------|---------------------------------------|
||--------------------------------|---------------------------------------|
||o-------------------------------|---------------------------------------|
||--8-----------------------------|-(8)-------------10------------(10)\---|


  N.C.
  PM------------------------------------------------------------|
  E S S S S S S S S S S S S S S    E  S S S S S S S S S S S S S S
|-------------------------------|----------------------------------||
|-------------------------------|---------------------------------o||
|-------------------------------|----------------------------------||
|-------------------------------|----------------------------------||
|-------------------------------|---------------------------------o||
|-0-0-0-6-6-0-0-0-6-6-6-5-6-6-6-|--0--0-0-6-6-0-0-0-6-6-6-5-6-6-6--||
|
| ~~~~~~~~~~~~~~~~~~~~~~~~~~~~~~~~~~~~
| W                               +W
|-------------------------------|----------------------------------||
|-------------------------------|---------------------------------o||
|-------------------------------|----------------------------------||
|-------------------------------|----------------------------------||
|-------------------------------|---------------------------------o||
|-6-----------------------------|-(6)------------------------------||


   Verse
    N.C.
    PM----------------------------------------------------------|
    E S S S S S S S S S S S S S S   E S S S S S S S S S S S S S S
||--------------------------------|-------------------------------|
||o-------------------------------|-------------------------------|
||--------------------------------|-------------------------------|
||--------------------------------|-------------------------------|
||o-------------------------------|-------------------------------|
||--0-0-0-8-8-0-0-0-8-8-8-7-8-8-8-|-0-0-0-8-8-0-0-0-8-8-8-7-8-8-8-|


  PM----------------------------------------------------------|
  E S S S S S S S S S S S S S S   E S S S S S S S S S S S S S S  4x
|-------------------------------|--------------------------------||
|-------------------------------|-------------------------------o||
|-------------------------------|--------------------------------||
|-------------------------------|--------------------------------||
|-------------------------------|-------------------------------o||
|-0-0-0-6-6-0-0-0-6-6-6-5-6-6-6-|-0-0-0-6-6-0-0-0-6-6-6-5-6-6-6--||


 Pre-Chorus
  N.C.
  E E  E     E      +Q     E     E
|--------------------------------------|
|-----11----11-----(11)---11----11-----|
|-----13b15-13b15==(13)r--13b15-13b15==|
|--------------------------------------|
|--------------------------------------|
|-0-0----------------------------------|


   +Q     E     E      +Q     E     E
|-----------------------------------------|
|-(11)---11----11-----(11)---11----11-----|
|-(13)r--13b15-13b15==(13)r--13b15-13b15==|
|-----------------------------------------|
|-----------------------------------------|
|-----------------------------------------|


  N.C.
   +Q     E     E      +Q     E     E
|-----------------------------------------|
|-(11)---13----13-----(13)---13----13-----|
|-(13)r--15b17-15b17==(15)r--15b17-15b17==|
|-----------------------------------------|
|-----------------------------------------|
|-----------------------------------------|


   +Q     E     E      +Q     E     E
|-----------------------------------------|
|-(13)---13----13-----(13)---13----13-----|
|-(15)r--15b17-15b17==(15)r--15b17-15b17==|
|-----------------------------------------|
|-----------------------------------------|
|-----------------------------------------|


  N.C.
   +Q     E     E      +Q     E     E
|-----------------------------------------|
|-(13)---15----15-----(15)---15----15-----|
|-(15)r--17b19-17b19==(17)r--17b19-17b19==|
|-----------------------------------------|
|-----------------------------------------|
|-----------------------------------------|


   +Q     E     E      +Q     E     E
|-----------------------------------------|
|-(15)---15----15-----(15)---15----15-----|
|-(17)r--17b19-17b19==(17)r--17b19-17b19==|
|-----------------------------------------|
|-----------------------------------------|
|-----------------------------------------|


  N.C.
   +Q     E     E      +Q     E     E
|-----------------------------------------|
|-(15)----9-----9------(9)----9-----9-----|
|-(17)r--11b13-11b13==(11)r--11b13-11b13==|
|-----------------------------------------|
|-----------------------------------------|
|-----------------------------------------|


   +Q     E     E      +Q     E     E
|----------------------------------------|
|--(9)----9-----9------(9)----9-----9----|
|-(11)r--11b13-11b13==(11)r--11b13-11b13-|
|----------------------------------------|
|----------------------------------------|
|----------------------------------------|


   Pre-Verse
    N.C.
    PM----------------------------------------------------------|
    E S S S S S S S S S S S S S S   E S S S S S S S S S S S S S S
||--------------------------------|-------------------------------|
||o-------------------------------|-------------------------------|
||--------------------------------|-------------------------------|
||--------------------------------|-------------------------------|
||o-------------------------------|-------------------------------|
||--0-0-0-8-8-0-0-0-8-8-8-7-8-8-8-|-0-0-0-8-8-0-0-0-8-8-8-7-8-8-8-|


  N.C.
  PM----------------------------------------------------------|
  E S S S S S S S S S S S S S S   E S S S S S S S S S S S S S S
|-------------------------------|--------------------------------||
|-------------------------------|-------------------------------o||
|-------------------------------|--------------------------------||
|-------------------------------|--------------------------------||
|-------------------------------|-------------------------------o||
|-0-0-0-6-6-0-0-0-6-6-6-5-6-6-6-|-0-0-0-6-6-0-0-0-6-6-6-5-6-6-6--||


    N.C.
    Gtr I
    PM------------------------------------------------------------------|
    E S S S S S S S S S S S S S S    E  S S S S S S  S  S S S S S   S   S
||--------------------------------|---------------------------------------|
||o-------------------------------|---------------------------------------|
||--------------------------------|---------------------------------------|
||--------------------------------|---------------------------------------|
||o-------------------------------|---------------------------------------|
||--0-0-0-8-8-0-0-0-8-8-8-7-8-8-8-|--0--0-0-8-8-0-0--0--8-8-8-7-8---8---8-|
|
|   Gtr II
|   ~~~~~~~~~~~~~~~~~~~~~~~~~~~~~~~~~~~~~~~~~~~~~~~~~~~~
|   W                               +H               Q.            +E
||--------------------------------|---------------------------------------|
||o-------------------------------|---------------------------------------|
||--------------------------------|---------------------------------------|
||--------------------------------|---------------------------------------|
||o-------------------------------|---------------------------------------|
||--8-----------------------------|-(8)-------------10------------(10)\---|


  N.C.
  PM------------------------------------------------------------|
  E S S S S S S S S S S S S S S    E  S S S S S S S S S S S S S S
|-------------------------------|----------------------------------||
|-------------------------------|---------------------------------o||
|-------------------------------|----------------------------------||
|-------------------------------|----------------------------------||
|-------------------------------|---------------------------------o||
|-0-0-0-6-6-0-0-0-6-6-6-5-6-6-6-|--0--0-0-6-6-0-0-0-6-6-6-5-6-6-6--||
|
| ~~~~~~~~~~~~~~~~~~~~~~~~~~~~~~~~~~~~
| W                               +W
|-------------------------------|----------------------------------||
|-------------------------------|---------------------------------o||
|-------------------------------|----------------------------------||
|-------------------------------|----------------------------------||
|-------------------------------|---------------------------------o||
|-6-----------------------------|-(6)------------------------------||


   Verse
    N.C.
    Gtr I
     PM----------------------------------------------
     E     S  S  S  S  S  S  S  S  S  S  S  S  S  S
||--------------------------------------------------|
||o-------------------------------------------------|
||--------------------------------------------------|
||--------------------------------------------------|
||o-------------------------------------------------|
||---0-----0--0--8--8--0--0--0--8--8--8--7--8--8--8-|
|
|   Gtr II
|    S  S  S  S  S  S  S  S  S  S  S  S  S  S  S  S
||--------------------------------------------------|
||o-------------------------------------------------|
||--------------------------------------------------|
||--12-12-12-12-12-12-12-12-12-12-12-12-12-12-12-12-|
||o-------------------------------------------------|
||--------------------------------------------------|


 -------------------------------|
  E   S S S S S S S S S S S S S S
|---------------------------------|
|---------------------------------|
|---------------------------------|
|---------------------------------|
|---------------------------------|
|-0---0-0-8-8-0-0-0-8-8-8-7-8-8-8-|
|
| S S S S S S S S S S S S S S S S
|---------------------------------|
|---------------------------------|
|---------------------------------|
|-7-7-7-7-7-7-7-7-7-7-7-7-7-7-7-7-|
|---------------------------------|
|---------------------------------|

[ Tab from: http://www.guitartabs.cc/tabs/s/soundgarden/jesus_christ_pose_tab_ver_3.html ]
  N.C.
  PM--------------------------------------------------------------|
  E   S S S S S S S S S S S S S S   E   S S S S S S S S S S S S S S   4x
|---------------------------------|-----------------------------------||
|---------------------------------|----------------------------------o||
|---------------------------------|-----------------------------------||
|---------------------------------|-----------------------------------||
|---------------------------------|----------------------------------o||
|-0---0-0-6-6-0-0-0-6-6-6-5-6-6-6-|-0---0-0-6-6-0-0-0-6-6-6-5-6-6-6---||
|
| S S S S S S S S S S S S S S S S   S S S S S S S S S S S S S S S S   4x
|---------------------------------|-----------------------------------||
|---------------------------------|----------------------------------o||
|---------------------------------|-----------------------------------||
|---------------------------------|-7-7-7-7-7-7-7-7-7-7-7-7-7-7-7-7---||
|-5-5-5-5-5-5-5-5-5-5-5-5-5-5-5-5-|----------------------------------o||
|---------------------------------|-----------------------------------||


 Pre-Chorus
  N.C.
  Gtr I
  E E  E     E      +Q     E     E
|--------------------------------------|
|-----11----11-----(11)---11----11-----|
|-----13b15-13b15==(13)r--13b15-13b15==|
|--------------------------------------|
|--------------------------------------|
|-0-0----------------------------------|


   +Q     E     E      +Q     E     E
|-----------------------------------------|
|-(11)---11----11-----(11)---11----11-----|
|-(13)r--13b15-13b15==(13)r--13b15-13b15==|
|-----------------------------------------|
|-----------------------------------------|
|-----------------------------------------|


  N.C.
   +Q     E     E      +Q     E     E
|-----------------------------------------|
|-(11)---13----13-----(13)---13----13-----|
|-(13)r--15b17-15b17==(15)r--15b17-15b17==|
|-----------------------------------------|
|-----------------------------------------|
|-----------------------------------------|


   +Q     E     E      +Q     E     E
|-----------------------------------------|
|-(13)---13----13-----(13)---13----13-----|
|-(15)r--15b17-15b17==(15)r--15b17-15b17==|
|-----------------------------------------|
|-----------------------------------------|
|-----------------------------------------|


  N.C.
   +Q     E     E      +Q     E     E
|-----------------------------------------|
|-(13)---15----15-----(15)---15----15-----|
|-(15)r--17b19-17b19==(17)r--17b19-17b19==|
|-----------------------------------------|
|-----------------------------------------|
|-----------------------------------------|


   +Q     E     E      +Q     E     E
|-----------------------------------------|
|-(15)---15----15-----(15)---15----15-----|
|-(17)r--17b19-17b19==(17)r--17b19-17b19==|
|-----------------------------------------|
|-----------------------------------------|
|-----------------------------------------|


  N.C.
   +Q     E     E      +Q     E     E
|-----------------------------------------|
|-(15)----9-----9------(9)----9-----9-----|
|-(17)r--11b13-11b13==(11)r--11b13-11b13==|
|-----------------------------------------|
|-----------------------------------------|
|-----------------------------------------|


   +Q     E     E      +Q     E     E
|-----------------------------------------|
|--(9)----9-----9------(9)----9-----9-----|
|-(11)r--11b13-11b13==(11)r--11b13-11b13==|
|-----------------------------------------|
|-----------------------------------------|
|-----------------------------------------|


  N.C.
   +Q     E     E      +Q     E     E
|-----------------------------------------|
|--(9)---11----11-----(11)---11----11-----|
|-(11)r--13b15-13b15==(13)r--13b15-13b15==|
|-----------------------------------------|
|-----------------------------------------|
|-----------------------------------------|


   +Q     E     E      +Q     E     E
|-----------------------------------------|
|-(11)---11----11-----(11)---11----11-----|
|-(13)r--13b15-13b15==(13)r--13b15-13b15==|
|-----------------------------------------|
|-----------------------------------------|
|-----------------------------------------|


  N.C.
   +Q     E     E      +Q     E     E
|-----------------------------------------|
|-(11)---13----13-----(13)---13----13-----|
|-(13)r--15b17-15b17==(15)r--15b17-15b17==|
|-----------------------------------------|
|-----------------------------------------|
|-----------------------------------------|


   +Q     E     E      +Q     E     E
|-----------------------------------------|
|-(13)---13----13-----(13)---13----13-----|
|-(15)r--15b17-15b17==(15)r--15b17-15b17==|
|-----------------------------------------|
|-----------------------------------------|
|-----------------------------------------|


  N.C.
   +Q     E     E      +Q     E     E
|-----------------------------------------|
|-(13)---15----15-----(15)---15----15-----|
|-(15)r--17b19-17b19==(17)r--17b19-17b19==|
|-----------------------------------------|
|-----------------------------------------|
|-----------------------------------------|


   +Q     E     E      +Q     E     E
|-----------------------------------------|
|-(15)---15----15-----(15)---15----15-----|
|-(17)r--17b19-17b19==(17)r--17b19-17b19==|
|-----------------------------------------|
|-----------------------------------------|
|-----------------------------------------|


  N.C.
   +Q     E     E      +Q     E     E
|-----------------------------------------|
|-(15)----9-----9------(9)----9-----9-----|
|-(17)r--11b13-11b13==(11)r--11b13-11b13==|
|-----------------------------------------|
|-----------------------------------------|
|-----------------------------------------|


   +Q     E     E      +Q     E     E
|----------------------------------------|
|--(9)----9-----9------(9)----9-----9----|
|-(11)r--11b13-11b13==(11)r--11b13-11b13-|
|----------------------------------------|
|----------------------------------------|
|----------------------------------------|


   Chorus
    N.C.    D5    N.C.    D5      N.C.    C5    N.C.    C5
    S S S S  E  E S S S S  E  E   S S S S  E  E S S S S  E  E  4x
||------------------------------|------------------------------||
||o-----------------------------|-----------------------------o||
||------------------------------|------------------------------||
||----------12-12---------12-12-|---------10-10---------10-10--||
||o-x-x-x-x-12-12-x-x-x-x-12-12-|-x-x-x-x-10-10-x-x-x-x-10-10-o||
||--x-x-x-x-12-12-x-x-x-x-12-12-|-x-x-x-x-10-10-x-x-x-x-10-10--||


   Bridge
    N.C.
    PM-------------------------------------
    E S S  S  S S S  S  S S  S  +S   S  E
||----------------------------------------|
||o---------------------------------------|
||----------------------------------------|
||----------------------------------------|
||o---------------------------------------|
||--0-0-0-12-12-0-0-10-10-0-10-(10)-10-12-|


 ------------------------------------|
  E S S  S  S S S  S  S S  S  +S   S  E
|----------------------------------------|
|----------------------------------------|
|----------------------------------------|
|----------------------------------------|
|----------------------------------------|
|-0-0-0-13-13-0-0-10-10-0-10-(10)-13-12--|


  A5             Ab5F5 Ab5   G5    Ab5
  W          +S  E. E. S +E  E +S  E.  5x
|----------|---------------------------||
|----------|--------------------------o||
|----------|---------------------------||
|-7--------|-(7)-6--3--6-(6)-5-(5)-6---||
|-7--------|-(7)-6--3--6-(6)-5-(5)-6--o||
|-7--------|-(7)-6--3--6-(6)-5-(5)-6---||


  N.C.
  E S S S S S S S S S S +S  S E   E S S S S S S S S S S +S  S E
|-------------------------------|-------------------------------|
|-------------------------------|-------------------------------|
|-------------------------------|-------------------------------|
|-------------------------------|-------------------------------|
|-0-0-0-5-5-5-0-0-0-0-3-(3)-5-5-|-0-0-0-6-6-6-6-0-0-0-3-(3)-6-5-|
|-------------------------------|-------------------------------|


  F5           Ab5F5 Ab5   G5    Ab5
  W          S E. E. S +E  E +S  E.
|----------|------------------------|
|----------|------------------------|
|----------|------------------------|
|-3--------|-x-6--3--6-(6)-5-(5)-6--|
|-3--------|-x-6--3--6-(6)-5-(5)-6--|
|-3--------|-x-6--3--6-(6)-5-(5)-6--|


   Chorus
    N.C.    D5    N.C.    D5      N.C.    C5    N.C.    C5
    S S S S  E  E S S S S  E  E   S S S S  E  E S S S S  E  E  4x
||------------------------------|------------------------------||
||o-----------------------------|-----------------------------o||
||------------------------------|------------------------------||
||----------12-12---------12-12-|---------10-10---------10-10--||
||o-x-x-x-x-12-12-x-x-x-x-12-12-|-x-x-x-x-10-10-x-x-x-x-10-10-o||
||--x-x-x-x-12-12-x-x-x-x-12-12-|-x-x-x-x-10-10-x-x-x-x-10-10--||


   Outro
    N.C.
    Gtr I
          |--3--|                  |--3--|
    H     S  S  S E  Q       H     S  S  S E  Q      6x
||-------------------------|-------------------------||
||o------------------4b5---|------------------4b5---o||
||--------3h=5p=3-0--------|-------3h=5p=3-0---------||
||-------------------------|-------------------------||
||o------------------------|------------------------o||
||--0----------------------|-0-----------------------||
|
|   Gtr II
|         |--3--|                  |--3--|
|   H     S  S  S E  Q       H     S  S  S E  Q      6x
||-------------------------|-------------------------||
||o-----------------16b17--|-----------------16b17--o||
||-------15h17p15-0--------|------15h17p15-0---------||
||-------------------------|-------------------------||
||o------------------------|------------------------o||
||--0----------------------|-0-----------------------||


  N.C.
        |--3--|                  |--3--|
  H     S  S  S E  Q       H     S  S  S E  Q
|------------------------|------------------------|
|------------------4b5---|------------------4b5---|
|-------3h=5p=3-0--------|-------3h=5p=3-0--------|
|------------------------|------------------------|
|------------------------|------------------------|
|-0----------------------|-0----------------------|
|
|       |--3--|                  |--3--|
| H     S  S  S E  Q       H     S  S  S E  Q
|------------------------|------------------------|
|-----------------16b17--|-----------------16b17--|
|------15h17p15-0--------|------15h17p15-0--------|
|------------------------|------------------------|
|------------------------|------------------------|
|-0----------------------|-0----------------------|


  N.C.
        |--3--|                  |--3--|
  H     S  S  S E  Q       H     S  S  S E  Q
|------------------------|------------------------|
|------------------4b5---|------------------4b5---|
|-------3h=5p=3-0--------|-------3h=5p=3-0--------|
|------------------------|------------------------|
|------------------------|------------------------|
|-0----------------------|-0----------------------|
|
|       |--3--|                  |--3--|
| H     S  S  S E  Q       H     S  S  S E  Q
|------------------------|------------------------|
|-----------------16b17--|-----------------16b17--|
|------15h17p15-0--------|------15h17p15-0--------|
|------------------------|------------------------|
|------------------------|------------------------|
|-0----------------------|-0----------------------|


  N.C.
        |--3--|                  |--3--|
  H     S  S  S E  Q       H     S  S  S E  Q
|------------------------|------------------------|
|------------------4b5---|------------------4b5---|
|-------3h=5p=3-0--------|-------3h=5p=3-0--------|
|------------------------|------------------------|
|------------------------|------------------------|
|-0----------------------|-0----------------------|
|
|       |--3--|                  |--3--|
| H     S  S  S E  Q       H     S  S  S E  Q
|------------------------|------------------------|
|-----------------16b17--|-----------------16b17--|
|------15h17p15-0--------|------15h17p15-0--------|
|------------------------|------------------------|
|------------------------|------------------------|
|-0----------------------|-0----------------------|


  N.C.
        |--3--|                  |--3--|
  H     S  S  S E  Q       H     S  S  S E  Q
|------------------------|------------------------|
|------------------4b5---|------------------4b5---|
|-------3h=5p=3-0--------|-------3h=5p=3-0--------|
|------------------------|------------------------|
|------------------------|------------------------|
|-0----------------------|-0----------------------|
|
|       |--3--|                  |--3--|
| H     S  S  S E  Q       H     S  S  S E  Q
|------------------------|------------------------|
|-----------------16b17--|-----------------16b17--|
|------15h17p15-0--------|------15h17p15-0--------|
|------------------------|------------------------|
|------------------------|------------------------|
|-0----------------------|-0----------------------|


                                           Q=87
  N.C.
  Gtr I
   H.       Q     +H       H         +Q     E  E  E  E  Q    W
|-15-------17--|-(17)----[23]----|-([23])------------------|------*|
|--------------|-----------------|-------------------------|------*|
|--------------|-----------------|---------14-13-13-16-17--|------*|
|--------------|-----------------|----------0--0--0--0--0--|------*|
|--------------|-----------------|-------------------------|------*|
|--------------|-----------------|-------------------------|------*|

Duration Legend
---------------
W - whole; H - half; Q - quarter; E - 8th; S - 16th; T - 32nd; X - 64th; a - acciaccatura
+ - note tied to previous; . - note dotted; .. - note double dotted
Uncapitalized letters represent notes that are staccato (1/2 duration)
Irregular groupings are notated above the duration line
Duration letters will always appear directly above the note/fret number it represents the
duration for.  Duration letters with no fret number below them represent rests.  Multi-
bar rests are notated in the form Wxn, where n is the number of bars to rest for.  Low
melody durations appear below the staff

Tablature Legend
----------------
 h   - hammer-on
 p   - pull-off
 b   - bend
 pb  - pre-bend
 r   - bend release (if no number after the r, then release immediately)
 /\  - slide into or out of (from/to "nowhere")
 s   - legato slide
 S   - shift slide
  - natural harmonic
[n]  - artificial harmonic
n(n) - tapped harmonic
 ~   - vibrato
 tr  - trill
 T   - tap
 TP  - trem. picking
 PM  - palm muting
\n/  - tremolo bar dip; n = amount to dip
 \n  - tremolo bar down
 n/  - tremolo bar up
/n\  - tremolo bar inverted dip
 =   - hold bend; also acts as connecting device for hammers/pulls
 <>  - volume swell (louder/softer)
 x   - on rhythm slash represents muted slash
 o   - on rhythm slash represents single note slash

Misc Legend
-----------
 |  - bar
||  - double bar
||o - repeat start
o|| - repeat end
*|  - double bar (ending)
 :  - bar (freetime)
 $  - Segno
 &  - Coda
Tempo markers -  = BPM(8/16=s8/s16), where s8 = swing 8ths, s16 =
Comments