Soundgarden - Hand Of God Chords & Tabs

 

Hand Of God Chords & Tabs

Soundgarden Chords & Tabs

Version: 1 Type: Tab 0 ratings
1 star 2 stars 3 stars 4 stars 5 stars
comments

Hand Of God Tab

   
----------------------------------PLEASE NOTE---------------------------------#
#This file is the author's own work and represents their interpretation of the #
#song. You may only use this file for private study, scholarship, or research. #
#------------------------------------------------------------------------------##
Date: Sat, 6 Jan 1996 15:19:12 -0500 (EST)
From: david a piniella 
Subject: /s/soundgarden/hand_of_god.tab
[ Tab from: http://www.guitartabs.cc/tabs/s/soundgarden/hand_of_god_tab.html ]
"hand of god" by soundgarden from the _fopp_ ep.
 
intro                        verse   pt. 1   pt. 2          pt. 3
e|-------------------------|--------------|----------------|-----------|
B|----------------------|----------0---|----------------|-----------|
G|----------------------|----------0---|----------------|-----------|
D|----------------------|----------0---|--7-------------|-----------|
A|----------------------|--------------|--7-------------|--------7--|
E|-----------|-----|--5----|--0--/3----|
                                             *
 
this part is all harmonics, play it through distortion and it'll
sound great. just play it as if your hand wasn't strong enough to
press down on the frets just right, you'll get very good artificial
harmonics.
 
the intro part is throughout the speech ("vanity of vanities..."
verse pt 1 is played once or twice in the beginning of the verse, 
verse pt 2 is played throughout most of the verse, with a B chord
sometimes substituted for the A chord (the A chord is marked with a *).
verse pt 3 is used at the end of the verse and during the solo, right
before the solo, it's doubled and harmonized a fourth up (same fret, next 
higher string)
 
wailing guitar throughout the beginning:
 
e|---------------------------------------------------------|
B|-----------------------------------11---14--------19~~~--|
G|--16~~~-14~~~-12~~~---12-12--14p12---12----12--16/-------|
D|---------------------------------------------------------|
A|---------------------------------------------------------|
E|---------------------------------------------------------|
 
e|--------------------------14-----------------------------|
B|--19----19-19------19--12--------------------------------|
G|-----16------16p14-----------14------12~~~~--etc, etc.---|
D|--------------------------------12h14--------------------|
A|---------------------------------------------------------|
E|---------------------------------------------------------|
 
there's more, but that's all i really feel like sitting down 
and figuring out.


Enjoy.

-d.
--
"negative d" and "-d."  is david a. piniella, who speaks for himself.
 
"Find myself singing the same songs every day/Ones that make me feel good
when things behind a smile ain't OK." [Shannon Hoon/Blind Melon]
 
"But I don't want to go among mad people," said Alice.
"Oh you can't help that," replied the Cat. "We're all mad here."
 
"There you go; stark raving sane." 
[Guildenstern]
Comments