Soundgarden - Gun Chords & Tabs

 

Gun Chords & Tabs

Soundgarden Chords & Tabs

Version: 2 Type: Bass Tab 0 ratings
1 star 2 stars 3 stars 4 stars 5 stars
comments

Gun Bass Tab

Soundgarden - Gun
Transcribed by Ron Fluit (The Netherlands)

2*  Intro Riff A: 
D|-0-2-3-0-2-3-0-0-|-0-2-3-0-2-3-2-0-|-3-2-0-2-2--(2)\--|-3-2-0-2-2--x-x--|  

1*  Intro Riff B: 
A|---7-8---7-8-----|---7-8---7-8-7---|-8-7-----7-7------|-----------------| 
D|-0-----0-----0-0-|-0-----0-------0-|-----0------------|--3-2-0-2-2--(2)/| 

Verse
4*  Verse 1 Riff:
D|-0-2-3-0-2-3-0-0-|-0-2-3-0-2-3-2-0-|-2-2-0-2-2--x-x-0-|-3-2-0-2-2-xx-xx-|

2*  Intro Riff A: 
D|-0-2-3-0-2-3-0-0-|-0-2-3-0-2-3-2-0-|-3-2-0-2-2--(2)\--|-3-2-0-2-2--x-x--|  


Verse 2
3*  Verse Riff: (palm muted)
D|-0-2-3-0-2-3-0-0-|-0-2-3-0-2-3-2-0-|-2-2-0-2-2--x-x-0-|-3-2-0-2-2-xx-xx-|
[ Tab from: http://www.guitartabs.cc/tabs/s/soundgarden/gun_btab_ver_2.html ]
1*
D|-0-2-3-0-2-3-0-0-|-0-2-3-0-2-3-2-0-|-2-2-0-2-2--x-x-0-|-3-2-0-/7--------|


4*	Riff after 2nd verse: 
D|0-2-2-0-2-2---0-|-2-2-0-/7----| 


1*
D|0-2-2-0-2-2---0-|-2-2-0-2-2--0-2-0--| 
  

4*	Pre-Solo Riff: 
D|0-2-2--0-2-2-2-2-|0-2-2-0--/7-7-7-7--| 

4*	Solo Riff: 
D|0-2-3-0-2-3-0-0-|0-2-3-0-2-3-2-0-|2-2-0-/7----|3-2-0-/5---| 

4*	Pre-Solo Riff: 
D|0-2-2--0-2-2-2-2-|0-2-2-0--/7-7-7-7--| 

1*
D|0-2-2--0-2-2--0-2-2-0-2-2-2---2---2---2-| 


2*  Intro Riff A: 
D|-0-2-3-0-2-3-0-0-|-0-2-3-0-2-3-2-0-|-3-2-0-2-2--(2)\--|-3-2-0-2-2--x-x--|  

1*  Intro Riff B: 
A|---7-8---7-8-----|---7-8---7-8-7---|-8-7-----7-7------|-----------------| 
D|-0-----0-----0-0-|-0-----0-------0-|-----0------------|--3-2-0-2-2--(2)/| 

1*	Outro:
D|-0-2-3-0-2-3-0-0-|-0-2-3-0-2-3-2-0-|-2-2-0-/7--------|| 
Comments