Soundgarden - Fresh Tendrils Chords & Tabs

 

Fresh Tendrils Chords & Tabs

Soundgarden Chords & Tabs

Version: 4 Type: Bass Tab 0 ratings
1 star 2 stars 3 stars 4 stars 5 stars
comments

Fresh Tendrils Bass Tab

   
Song: Fresh Tendrils
Artist: Soundgarden
Album: Superunknown
Tabbed by Infrignito Erikk for Bass

Tuning is: D,A,D,G

Intro:

G|----------|-------|-------|-----|----------|-------|-------|-----|
D|*---------|-------|-------|-----|----------|-------|-------|-----|
A|*---------|-------|-------|-----|----------|-------|-------|-----|
D|-0--0-0-0-|-0-0-0-|-0-0-0-|-0-0-|-3--3-3-3-|-3-3-3-|-3-3-3-|-3-3-|

G|----------|-------|-------|-----|----------|-------|-------|-----|
D|----------|-------|-------|-----|----------|-------|-------|-----|
A|----------|-------|-------|-----|----------|-------|-------|-----|
D|-5--5-5-5-|-5-5-5-|-5-5-5-|-5-5-|-0--0-0-0-|-0-0-0-|-0-0-0-|-0-0-|

G|----------|-------|-------|-----|----------|-------|-------|-----|
D|----------|-------|-------|-----|----------|-------|-------|----*|
A|----------|-------|-------|-----|----------|-------|-------|----*|
D|-3--3-3-3-|-3-3-3-|-3-3-3-|-3-3-|-5--5-5-5-|-5-5-5-|-5-5-5-|-5-5-|

Verse:

G|--------------------------|--------------------------|
D|--------------------------|3-------------------5p3--*|
A|-8-8-8-8-8-8-8/-------3p5-|---5---0--3---5----------*|
D|---------------0----------|--------------------------|

G|--------------------------|--------------------------|
D|--------------------------|3-------------------5p3--*|
A|-8-8-8-8-8-8-8/-------3p5-|---5---0--3---5----------*|
D|---------------0----------|--------------------------|

G|--------------------------|--------------------------|
D|*-------------------------|--------------------------|
A|*8-8-8-8-8-8-8/-------3p5-|-4----3----2--------------|
D|---------------0----------|----------------5----4----|

G|--------------------------|--------------------------|
D|--------------------------|3-------------------5p3--*|
A|-8-8-8-8-8-8-8/-------3p5-|---5---0--3---5----------*|
D|---------------0----------|--------------------------|

G|--------------------------|--------------------------|
D|--------------------------|3-------------------5p3--*|
A|-8-8-8-8-8-8-8/-------3p5-|---5---0--3---5----------*|
D|---------------0----------|--------------------------|

G|--------------------------|--------------------------|
D|--------------------------|--------------------5p3--*|
A|-8-8-8-8-8-8-8/-----------|-------------------------*|
D|---------------0----------|--------------------------|

Break:

G|-----------------|
D|*----------------|
A|*8-8-8-8-8-8-8/--|
D|-----------------|

G|----------|-------|-------|-----|----------|-------|-------|-----|
D|*---------|-------|-------|-----|----------|-------|-------|-----|
A|*---------|-------|-------|-----|----------|-------|-------|-----|
D|-0--0-0-0-|-0-0-0-|-0-0-0-|-0-0-|-3--3-3-3-|-3-3-3-|-3-3-3-|-3-3-|

G|----------|-------|-------|-----|----------|-------|-------|-----|
D|----------|-------|-------|-----|----------|-------|-------|----*|
A|----------|-------|-------|-----|----------|-------|-------|----*|
D|-5--5-5-5-|-5-5-5-|-5-5-5-|-5-5-|-0--0-0-0-|-0-0-0-|-0-0-0-|-0-0-|

Second Verse:

G|--------------------------|--------------------------|
D|--------------------------|3-------------------5p3--*|
A|-8-8-8-8-8-8-8/-------3p5-|---5---0--3---5----------*|
D|---------------0----------|--------------------------|

G|--------------------------|--------------------------|
D|--------------------------|3-------------------5p3--*|
A|-8-8-8-8-8-8-8/-------3p5-|---5---0--3---5----------*|
D|---------------0----------|--------------------------|

G|--------------------------|--------------------------|
D|*-------------------------|--------------------------|
A|*8-8-8-8-8-8-8/-------3p5-|-4----3----2--------------|
D|---------------0----------|----------------5----4----|

G|--------------------------|--------------------------|
D|--------------------------|3-------------------5p3--*|
A|-8-8-8-8-8-8-8/-------3p5-|---5---0--3---5----------*|
D|---------------0----------|--------------------------|

G|--------------------------|--------------------------|
D|--------------------------|3-------------------5p3--*|
A|-8-8-8-8-8-8-8/-------3p5-|---5---0--3---5----------*|
D|---------------0----------|--------------------------|

G|--------------------------|--------------------------|
D|--------------------------|--------------------5p3--*|
A|-8-8-8-8-8-8-8/-----------|-------------------------*|
D|---------------0----------|--------------------------|

Break:

G|-----------------|--------|--------|--------|--------|
D|*----------------|--------|--------|--------|-------*|
A|*8-8-8-8-8-8-8/--|--------|--------|--------|-------*|
D|---------------0~|--------|--------|--------|--------|

Chorus:

G|-----------------|--------|-----10-|-9------|--------|-----------------|
D|*-3--------5~----|------0~|--------|----10~-|-------*|*5-5-5----------*|
A|*-------5--------|--------|--------|--------|-------*|*--------5-5-5--*|
D|-----------------|--------|--------|--------|--------|-----------------|

G|-----------------|--------|-----10-|-9------|--------|-----------------|
D|*-3--------5~----|------0~|--------|----10~-|-------*|*-3--------5~---*|
A|*-------5--------|--------|--------|--------|-------*|*-------5-------*|
D|-----------------|--------|--------|--------|--------|-----------------|

G|-----------------|-----------------|--------|-----10-|-9------|
D|*---------------*|*-3--------5~----|------0~|--------|----10~*|
A|*--------5-5-5--*|*-------5--------|--------|--------|-------*|
D|-5-5-5-----------|-----------------|--------|--------|--------|

G|-10\-------------|
D|*----3---5~-----*|
A|*---------------*|
D|-----------------|

Chorus-outro:

G|--------10---10---|---10---10---|--------10---10---|---10---10---|------|
D|*0#---0----0----0-|-0----0----0-|-0#---0----0----0-|-0----0----0-|-0#--*|
A|*-----------------|-------------|------------------|-------------|-----*|
D|------------------|-------------|------------------|-------------|------|

Break:
[ Tab from: http://www.guitartabs.cc/tabs/s/soundgarden/fresh_tendrils_btab_ver_4.html ]
G|----------|-------|-------|-----|----------|-------|-------|-----|
D|*---------|-------|-------|-----|----------|-------|-------|-----|
A|*---------|-------|-------|-----|----------|-------|-------|-----|
D|-0--0-0-0-|-0-0-0-|-0-0-0-|-0-0-|-3--3-3-3-|-3-3-3-|-3-3-3-|-3-3-|

G|----------|-------|-------|-----|----------|-------|-------|-----|
D|----------|-------|-------|-----|----------|-------|-------|-----|
A|----------|-------|-------|-----|----------|-------|-------|-----|
D|-5--5-5-5-|-5-5-5-|-5-5-5-|-5-5-|-0--0-0-0-|-0-0-0-|-0-0-0-|-0-0-|

G|----------|-------|-------|-----|----------|-------|-------|-----|
D|----------|-------|-------|-----|----------|-------|-------|----*|
A|----------|-------|-------|-----|----------|-------|-------|----*|
D|-3--3-3-3-|-3-3-3-|-3-3-3-|-3-3-|-5--5-5-5-|-5-5-5-|-5-5-5-|-5-5-|

Third Verse:

G|--------------------------|--------------------------|
D|--------------------------|3-------------------5p3--*|
A|-8-8-8-8-8-8-8/-------3p5-|---5---0--3---5----------*|
D|---------------0----------|--------------------------|

G|--------------------------|--------------------------|
D|--------------------------|3-------------------5p3--*|
A|-8-8-8-8-8-8-8/-------3p5-|---5---0--3---5----------*|
D|---------------0----------|--------------------------|

G|--------------------------|--------------------------|
D|*-------------------------|--------------------------|
A|*8-8-8-8-8-8-8/-------3p5-|-4----3----2--------------|
D|---------------0----------|----------------5----4----|

G|--------------------------|--------------------------|
D|--------------------------|3-------------------5p3--*|
A|-8-8-8-8-8-8-8/-------3p5-|---5---0--3---5----------*|
D|---------------0----------|--------------------------|

G|--------------------------|--------------------------|
D|--------------------------|--------------------5p3--*|
A|-8-8-8-8-8-8-8/-----------|-------------------------*|
D|---------------0----------|--------------------------|

G|--------------------------|--------------------------|
D|--------------------------|--------------------5p3--*|
A|-8-8-8-8-8-8-8/-----------|-------------------------*|
D|---------------0----------|--------------------------|

Break:

G|-----------------|--------|--------|--------|--------|
D|*----------------|--------|--------|--------|-------*|
A|*8-8-8-8-8-8-8/--|--------|--------|--------|-------*|
D|---------------0~|--------|--------|--------|--------|

Second Chorus:

G|-----------------|--------|-----10-|-9------|--------|-----------------|
D|*-3--------5~----|------0~|--------|----10~-|-------*|*5-5-5----------*|
A|*-------5--------|--------|--------|--------|-------*|*--------5-5-5--*|
D|-----------------|--------|--------|--------|--------|-----------------|

G|-----------------|--------|-----10-|-9------|--------|-----------------|
D|*-3--------5~----|------0~|--------|----10~-|-------*|*-3--------5~---*|
A|*-------5--------|--------|--------|--------|-------*|*-------5-------*|
D|-----------------|--------|--------|--------|--------|-----------------|

G|-----------------|-----------------|--------|-----10-|-9------|
D|*---------------*|*-3--------5~----|------0~|--------|----10~*|
A|*--------5-5-5--*|*-------5--------|--------|--------|-------*|
D|-5-5-5-----------|-----------------|--------|--------|--------|

G|-10\-------------|
D|*----3---5~-----*|
A|*---------------*|
D|-----------------|

Chorus-outro:

G|--------10---10---|---10---10---|--------10---10---|---10---10---|
D|*0#---0----0----0-|-0----0----0-|-0#---0----0----0-|-0----0----0*|
A|*-----------------|-------------|------------------|------------*|
D|------------------|-------------|------------------|-------------|

Solo:

G|-----------------|--------10---10---|---10----------|
D|*-3--------5~----|-0#---0----0----0-|-0----12-10----|
A|*-------5--------|------------------|------------12-|
D|-----------------|------------------|---------------|

G|-----------------|--------10---10---|---10----------|
D|--3--------5~----|-0#---0----0----0-|-0----12-10----|
A|--------5--------|------------------|------------12-|
D|-----------------|------------------|---------------|

G|-----------------|--------10---10---|---10----------|
D|--3--------5~----|-0#---0----0----0-|-0----12-10---*|
A|--------5--------|------------------|------------12*|
D|-----------------|------------------|---------------|

G|-----------------|
D|*-3--------5~---*|
A|*-------5-------*|
D|-----------------|

Interlude:

G|--------10---10---|---10---10---|--------10---10---|---10---10---|
D|*0#---0----0----0-|-0----0----0-|-0#---0----0----0-|-0----0----0*|
A|*-----------------|-------------|------------------|------------*|
D|------------------|-------------|------------------|-------------|

G|--------10---10---|---10---10---|--------10---10---|---10---10---|
D|*0#---0----0----0-|-0----0----0-|-0#---0----0----0-|-0----0----0*|
A|*-----------------|-------------|------------------|------------*|
D|------------------|-------------|------------------|-------------|

Break:

G|----------|-------|-------|-----|----------|-------|-------|-----|
D|*---------|-------|-------|-----|----------|-------|-------|----*|
A|*---------|-------|-------|-----|----------|-------|-------|----*|
D|-0--0-0-0-|-0-0-0-|-0-0-0-|-0-0-|-0--0-0-0-|-0-0-0-|-0-0-0-|-0-0-|

G|----------|-------|-------|-----|----------|-------|-------|-----|
D|*---------|-------|-------|-----|----------|-------|-------|-----|
A|*---------|-------|-------|-----|----------|-------|-------|-----|
D|-0--0-0-0-|-0-0-0-|-0-0-0-|-0-0-|-3--3-3-3-|-3-3-3-|-3-3-3-|-3-3-|

G|----------|-------|-------|-----|----------|-------|-------|-----|
D|----------|-------|-------|-----|----------|-------|-------|-----|
A|----------|-------|-------|-----|----------|-------|-------|-----|
D|-5--5-5-5-|-5-5-5-|-5-5-5-|-5-5-|-0--0-0-0-|-0-0-0-|-0-0-0-|-0-0-|

G|----------|-------|-------|-----|----------|-------|-------|-----|
D|----------|-------|-------|-----|----------|-------|-------|----*|
A|----------|-------|-------|-----|----------|-------|-------|----*|
D|-3--3-3-3-|-3-3-3-|-3-3-3-|-3-3-|-5--5-5-5-|-5-5-5-|-5-5-5-|-5-5-|

Ending:

G|-----------------|
D|*---------------*|
A|*8-8-8-8-8-8-8/-*|
D|---------------0-|
Comments