Soundgarden - Flower Chords & Tabs

 

Flower Chords & Tabs

Soundgarden Chords & Tabs

Version: 2 Type: Bass Tab 0 ratings
1 star 2 stars 3 stars 4 stars 5 stars
comments

Flower Bass Tab

Flower
By:  SOUNDGARDEN
From:  Ultramega OK

Verse:
G-----------------------------------------------------------------------
D-----------3---5-3------3----3h5--------3---5-3------3--3-----
A---------5---5------5-5---5------------5---5------5--5--5-------
E------------------------------------------------------------------------
[ Tab from: http://www.guitartabs.cc/tabs/s/soundgarden/flower_btab_ver_2.html ]
Chorus:
G--------------------------------------------
D---------------------------------------3----
A------3h5h3-6-5-3----3h5h3-6------
E---------------------------------------------

Final Verse:
G--------------------------------------------
D--------3---5-3--------3---5-5-5-3----
A------5---5-----5----5---5---------------
E---------------------------------------------
Comments