Soundgarden - Fell On Black Days Chords & Tabs

 

Fell On Black Days Chords & Tabs

Soundgarden Chords & Tabs

Version: 4 Type: Tab 0 ratings
1 star 2 stars 3 stars 4 stars 5 stars
comments

Fell On Black Days Tab

   
#----------------------------------PLEASE NOTE---------------------------------#
#This file is the author's own work and represents their interpretation of the #
#song. You may only use this file for private study, scholarship, or research. #
#------------------------------------------------------------------------------##

                               FELL ON BLACK DAYS
                           As recorded by Soundgarden
                       (From the 1994 Album SUPERUNKNOWN)

Words and Music by Chris Cornell


         Cmaj7                  E                    B                    A
      x 3 2 0 0 0          x 7 9 9 9 x          7 9 9 8 7 x          5 7 7 6 5 x

        Dsus2/A
      5 5 7 7 5 x

Gtr I (E A D G B E) - 'Dist Gtr. I (Chris Cornell)'
Gtr II (E A D G B E) - 'Dist. Gtr II (Kim Thayil)'
Gtr III (E A D G B E) - 'Dist. Lead Gtr (Kim Thayil)'
Gtr IV (E A D G B E) - 'Dist. Gtr III (Kim Thayil)'

   Intro
    Moderately Slow Rock Q=108
    E5   B5           C               E5   B5                   Cmaj7
   4/4                   2/4         4/4
    Gtr I
                      PM--------|
    Q  E E    +E  E E E   E E E E  3x Q  E E    +E  E E E        W
||----------------------|----------||-------------------------|---------------||
||o---------------------|---------o||-------------------------|--0------------||
||--9-------------------|----------||-9-----------------------|--0------------||
||--9----9b10r(9)-7-0---|----------||-9----9b10r(9)-7-0-------|--x------------||
||o-7--x-9b10r(9)-7-0-7-|-7-7-7---o||-7--x-9b10r(9)-7-0-7-----|--7------------||
||-----x-7----(7)-----8-|-8-8-8-0--||----x-7----(7)-----8-----|--8------------||
|
|   Gtr II
|   W                     H        3x H          Q    E E       +H     +H
||----------------------|----------||-------------------------|---------------||
||o---------------------|---------o||-------------------------|---------------||
||----------------------|----------||-------------------7pb9==|=(7)r===(7)----||
||----------------------|----------||-------------------------|---------------||
||o---------------------|---------o||-------------------------|---------------||
||----------------------|----------||-------------------------|---------------||


   Verse I
    E5        B5      C               B5
   4/4                   2/4         4/4
                      PM--------|
    Q  E E    +E  E E E   E E E E  9x E. S E E  E  E E E
||----------------------|----------||---------------------|
||o---------------------|---------o||---------------------|
||--9-------------------|----------||---------------------|
||--9----9b10r(9)-7-0---|----------||-9--9-9-9--x--9-x-9s=|
||o-7--x-9b10r(9)-7-0-7-|-7-7-7---o||-9--9-9-9--x--9-x-9s=|
||-----x-7----(7)-----8-|-8-8-8-0--||-7--7-7-7--x--7-x-7s=|
|
|   Gtr II
|                     PM--------|
|   Q  E E    +E  E E E   E E E E  9x H        +E  Q   E
||----------------------|----------||---------------------|
||o---------------------|---------o||---------------------|
||--9-------------------|----------||---------------------|
||--9----9b10r(9)-7-0---|----------||-9--------(9)-9---9s=|
||o-7--x-9b10r(9)-7-0-7-|-7-7-7---o||------------------9s=|
||-----x-7----(7)-----8-|-8-8-8-0--||-7--------(7)-7---7s=|


  A5          Cmaj7
  E E E   E E E Q    +W
|---------------0--|-(0)----||
|---------------0--|-(0)----||
|---------------0--|-(0)----||
|-7-7-7-/12---x-x--|-(x)----||
|-7-7-7---x---7-7--|-(7)----||
|-5-5-5-/10---8-8--|-(8)----||
|
| E E E   Q   E Q    +W
|---------------0--|-(0)----||
|---------------0--|-(0)----||
|---------------0--|-(0)----||
|-7-7-7-/12---x-x--|-(x)----||
|-7-7-7---x---7-7--|-(7)----||
|-5-5-5-/10---8-8--|-(8)----||


   Chorus I
    E5   B5           C               E5   B5               Cmaj7
   4/4                   2/4         4/4
    Gtrs I, II
                      PM--------|
    Q  E E    +E  E E E   E E E E  3x Q  E E    +E  E E E   W
||----------------------|----------||---------------------|------||
||o---------------------|---------o||---------------------|-0----||
||--9-------------------|----------||-9-------------------|-0----||
||--9----9b10r(9)-7-0---|----------||-9----9b10r(9)-7-0---|-x----||
||o-7--x-9b10r(9)-7-0-7-|-7-7-7---o||-7--x-9b10r(9)-7-0-7-|-7----||
||-----x-7----(7)-----8-|-8-8-8-0--||----x-7----(7)-----8-|-8----||


   Verse II
    E5   B5           C               B5
   4/4                   2/4         4/4
    Gtr I
                      PM--------|
    Q  E E    +E  E E E   E E E E  9x E. S E E E        E   E  E
||----------------------|----------||----------------------------|
||o---------------------|---------o||----------------------------|
||--9-------------------|----------||----------------------------|
||--9----9b10r(9)-7-0---|----------||-9--9-9-9-x--------9---x--9-|
||o-7--x-9b10r(9)-7-0-7-|-7-7-7---o||-9--9-9-9-x--------9---x--9-|
||-----x-7----(7)-----8-|-8-8-8-0--||-7--7-7-7-x--------7---x--7-|
|
|   Gtr II                            Gtr III
|                     PM--------|     ~~
|   Q  E E    +E  E E E   E E E E  9x Q.     Q   A     +E  +E  E
||----------------------|----------||----------------------------|
||o---------------------|---------o||----------------------------|
||--9-------------------|----------||-7----------9b11==(9)r(9)-7-|
||--9----9b10r(9)-7-0---|----------||--------9-------------------|
||o-7--x-9b10r(9)-7-0-7-|-7-7-7---o||----------------------------|
||-----x-7----(7)-----8-|-8-8-8-0--||----------------------------|


  B5   A5       D5        Cmaj7
  +E    E     E   E  E      E  Q    +W
|------------------------------0--|-(0)------------||
|------------------------------0--|-(0)------------||
|------------------------------0--|-(0)------------||
|-(9)\--7-----7-/12---------x--x--|-(x)------------||
|-(9)\--7-----7---x---------7--7--|-(7)------------||
|-(7)\--5-----5-/10---------8--8--|-(8)------------||
|
|             ~~               ~~~~~~~~~
| +E    E     Q      E     +E  Q    +H.      +Q
|---------------------------------|----------------||
|------10b12-10-----10b12r(10)----|----------------||
|-(7)--------------------------9--|-(9)------(9)\--||
|---------------------------------|----------------||
|---------------------------------|----------------||
|---------------------------------|----------------||


   Chorus II
    E5   B5           C                   E5   B5           C       D5
   4/4                   2/4         4/4                       2/4
    Gtrs I, II
                      PM--------|                           PM
    Q  E E    +E  E E E   E E E E  3x     Q  E E    +E  E E E   +E  E E E
||----------------------|----------||-||----------------------|-----------|
||o---------------------|---------o||-||o---------------------|-----------|
||--9-------------------|----------||-||--9-------------------|-----7-7-7-|
||--9----9b10r(9)-7-0---|----------||-||--9----9b10r(9)-7-0---|-----7-7-7-|
||o-7--x-9b10r(9)-7-0-7-|-7-7-7---o||-||o-7--x-9b10r(9)-7-0-7-|-(7)-5-5-5-|
||-----x-7----(7)-----8-|-8-8-8-0--||-||-----x-7----(7)-----8-|-(8)-------|


  E5   B5           C               E5   B5           C
 4/4                   2/4         4/4                   2/4
                    PM--------|                       PM      PM|
  Q  E E    +E  E E E   E E E E     Q  E E    +E  E E E   +E  E Q
|---------------------|----------||---------------------|----------||
|---------------------|---------o||---------------------|----------||
|-9-------------------|----------||-9-------------------|----------||
|-9----9b10r(9)-7-0---|----------||-9----9b10r(9)-7-0---|----------||
|-7--x-9b10r(9)-7-0-7-|-7-7-7---o||-7--x-9b10r(9)-7-0-7-|-(7)-7-7--||
|----x-7----(7)-----8-|-8-8-8-0--||----x-7----(7)-----8-|-(8)-8-8--||


   Bridge
    N.C.                 (D)
   4/4
    E. S E E +E   E  +E   E
||--------------------------|
||o-------------------------|
||---------9-(9)S13-(13)S14-|
||--9--9-9-x-(x)--x--(x)--0-|
||o-x--x-x-7-(7)S11-(11)S12-|
||--7--7-7------------------|


                                                   ~~
          |--3---|
   +E  E  S  S   S   E  E  E   E   E    +E   E  E  Q    E   Q
|------------------------------------|---------------------------||
|------------------------------------|--------------------------o||
|-(14)---16h17p=16--14-16-17-(17)S19-|-(19)-17-16-14--(14)-14\---||
|--(0)-0--0-(0)-(0)--0--0--0---0---0-|--(0)--0--0--0----0---0----||
|-(12)-------------------------------|--------------------------o||
|------------------------------------|---------------------------||


  N.C.                      (D)
                                    |--3---|
  E. S E E +E   E  +E   E    +E  E  S  S   S   E  E  E   E   E
|-------------------------|------------------------------------|
|-------------------------|------------------------------------|
|--------9-(9)S13-(13)S14-|-(14)---16h17p=16--14-16-17-(17)S19-|
|-9--9-9-x-(x)--x--(x)--0-|--(0)-0--0-(0)-(0)--0--0--0---0---0-|
|-x--x-x-7-(7)S11-(11)S12-|-(12)-------------------------------|
|-7--7-7------------------|------------------------------------|


          |--3---|
   +E  E  S  S   S   E  E  E   E   E
|------------------------------------|
|------------------------------------|
|-(19)---16h17p=16--14-16-17-(17)-16-|
|--(0)-0--0-(0)-(0)--0--0--0---0---0-|
|------------------------------------|
|------------------------------------|


                                                   ~~
          |--3---|
   +E  E  S  S   S   E  E  E   E   E    +E   E  E  Q   E  Q
|------------------------------------|-----------------------||
|------------------------------------|-----------------------||
|-(16)---16h17p=16--14-16-17-(17)S19-|-(19)-17-16-14--12-11--||
|--(0)-0--0-(0)-(0)--0--0--0---0---0-|--(0)--0--0--0---0--0--||
|------------------------------------|-----------------------||
|------------------------------------|-----------------------||


   Verse III
                         2/4         4/4                    2/4
    Gtrs I, II
                      PM--------|                        PM----------|
    Q  E E    +E  E E E   E E E E  6x Q  E E    +E  E  E E    E  E E E
||----------------------|----------||----------------------|-----------|
||o---------------------|---------o||----------------------|-----------|
||--9-------------------|----------||-9--------------------|-----------|
||--9----9b10r(9)-7-0---|----------||-9----9b10r(9)-7--0---|-----------|
||o-7--x-9b10r(9)-7-0-7-|-7-7-7---o||-7----9b10r(9)-7--0-7-|--7--7-7---|
||-----x-7----(7)-----8-|-8-8-8-0--||----x-7----(7)------8-|--8--8-8-0-|
|
|   Gtr III
|------------------------------------------------------------|TP
|   W                     W        6x H          E  Q.       +H
||----------------------|----------||----------------------|-----------|
||o---------------------|---------o||----------------------|-----------|
||----------------------|----------||---------------x------|-(x)-------|
||----------------------|----------||----------------------|-----------|
||o---------------------|---------o||----------------------|-----------|
||----------------------|----------||----------------------|-----------|


  E5     B5           C
 4/4                     2/4
                      PM----------|
   Q   E E    +E  E E E    E  E E E
|-----------------------|-----------||
|-----------------------|-----------||
|--9--------------------|-----------||
|--9-----9b10r(9)-7-0---|-----------||
|--7---x-9b10r(9)-7-0-7-|--7--7-7---||
|------x-7----(7)-----8-|--8--8-8-0-||
|
|  <
|-------------------------|TP
| +W                      +H
|-----------------------|-----------||
|-----------------------|-----------||
|-(x)-------------------|-(x)-------||
|-----------------------|-----------||
|-----------------------|-----------||
|-----------------------|-----------||

[ Tab from: http://www.guitartabs.cc/tabs/s/soundgarden/fell_on_black_days_tab_ver_4.html ]
 Guitar Solo
  E            B         E       B         A       Dsus2/A   Em/C
 4/4
  E.     S E   E   +E    Q       E     +E  E   E   E    +E    E       Q
|------------------------------------|------------------------0-------0----|
|-9------9-9---7---(7)---9-------7---|-(7)S5---5---5----(5)---0-------0----|
|-9------9-9---8---(8)---9-------8---|-(8)S6---6---7----(7)---0-------0----|
|-9------9-9---9---(9)---9-------9---|-(9)S7---7---7----(7)---2-------2----|
|-7------7-7---9---(9)---7-------9---|-(9)S7---7---5----(5)---3-------3----|
|--------------7---(7)-----------7---|-(7)S5---5---5----(5)----------------|
|
| S  S S S S S S S  S  S S S S S S S    E  S S S S S  S  S S +S     S Q
|------------------------------------|-------------------------------------|
|------------------------------------|-------------------------------------|
|-9--9-9---------------------7-7-7-7-|--7----------7-----7h9-(9)b11r9-7----|
|--------9-9-9-7-7h=9--9-9-9---------|-----7-7h9-9---h9--------------------|
|------------------------------------|-------------------------------------|
|------------------------------------|-------------------------------------|


  Cmaj7        E                 B               E         B
 2/4          4/4
  Gtr II
   H            E.      S E       E       +E     Q         E
   |            |       | |       |        |     |         |
   /            /       / /       /        /     /         /

  Gtr III
                      ~~
                          |-3--|  |--3--|  |----6----|
  +Q   +Q       E     E   S  S S  T T S S  S S S S S S S S E
|------------|-10b12-10---7-10p7--------------------------------|
|------------|-------------------10p7---7-10p7------------------|
|-(7)--(7)/--|------------------------9--------8-7-9p7---7h9b10r|
|------------|-----------------------------------------9--------|
|------------|--------------------------------------------------|
|------------|--------------------------------------------------|


      A         Dsus2/A Cmaj7
  +E  E     E   E  +E   E Q
   |  |     |   |   |   | |
   /  /     /   /   /   / /

                ~~            ~
      |-3-|
  +E  S S S S S E.    S E S S E
|-------------------------------|
|-------------------------------|
|-(9)-7h9p7---7-7-----x-7---7-7-|
|-----------9-------------9-----|
|-------------------------------|
|-------------------------------|


                      E                      B        E            B
 2/4                 4/4
  +H                   E.           S  E     E     +E  Q           E
   |                   |            |  |     |      |  |           |
   /                   /            /  /     /      /  /           /

       ~                                                     ~~~~~~~~~
                                       |----6----|
   S S E E      S S   +S   S S     +S  S S S S S S  E  E     Q
|-------------------|------------------------------------------------|
|--------------10---|-----10------------------------7-10b12-10b12====|
|----7-7-9b11=====9r|=(9)----9pb11r(9)-7h9p7--------7----------------|
|--9----------------|------------------------9p7h9-------------------|
|-------------------|------------------------------------------------|
|-------------------|------------------------------------------------|


     A               Dsus2/A   Cmaj7
  +E   E     E       E +E        E  Q
   |   |     |       |  |        |  |
   /   /     /       /  /        /  /

 ~~~~~~~~~~                 ~~~~~~~~
   E  +S   S S  E.      S  +S   +Q.
|--------------10b12---10-(10)-(10)-----|
|-10-(10)r10-x--------------------------|
|------------7--------------------------|
|---------------------------------------|
|---------------------------------------|
|---------------------------------------|


  Cmaj7         E             B         E            B
 2/4           4/4
   +H           E.   S  E     E      +E Q            E
    |           |    |  |     |       | |            |
    /           /    /  /     /       / /            /

    <
    ~~~~~~~~~
    Q    +Q     E.   S  E.       +S   E E  S     +S  E
|-(10)--(10)--|--------10b12====(10)r10-7--------------|
|--(9)---(9)--|---------------------------10b12r(10)-7-|
|-------------|-9b11-7---------------------------------|
|-------------|-9b11-----------------------------------|
|-------------|----------------------------------------|
|-------------|----------------------------------------|


             A            Dsus2/A     Cmaj7
  +E         E  E         E +E        E Q
   |         |  |         |  |        | |
   /         /  /         /  /        / /

                                        ~
   S     +S  E  S     +S  E  S    +S  E Q
|-10b12r(10)-7-----------------------------|
|--------------10b12r(10)-7----------------|
|----------------------------9b11r(9)-7----|
|---------------------------------------9--|
|------------------------------------------|
|------------------------------------------|


  Cmaj7
                           2/4
  +W           +W           +H
   |            |            |
   /            /            /

   ~~~~~~~~~~~~~~~~~~~~~~~~~~~~~
  +W           +W           +H
|------------|------------|--------||
|------------|------------|--------||
|------------|------------|--------||
|-(9)--------|-(9)--------|-(9)----||
|------------|------------|--------||
|------------|------------|--------||


 Chorus III
  E5      B5            C
 4/4                        2/4
  Gtrs I, II
                         PM--------------|
  Q     E E    +E  E  E  E     E  E   E  E
|--------------------------|---------------|
|--------------------------|---------------|
|-9------------------------|---------------|
|-9-------9b10r(9)-7--0----|---------------|
|-7-------9b10r(9)-7--0--7-|---7--7---7----|
|-------x-7----(7)-------8-|---8--8---8--0-|
|
| Gtr IV
| E +E  E Q        E  E  E    +Q     +Q
|--------------------------|---------------|
|--------------------------|---------------|
|-4-(4)s9-9--------9s12-12-|-(12)---(12)S==|
|-x-(x)---x--------x-----x-|--(x)----(x)---|
|-2-(2)s7-7--------7s10-10-|-(10)---(10)S==|
|--------------------------|---------------|


  E5      B5            C
 4/4                        2/4
                         PM-----------|
  Q     E E    +E  E  E  E     E  E E E
|--------------------------|------------|
|--------------------------|------------|
|-9------------------------|------------|
|-9-------9b10r(9)-7--0----|------------|
|-7-------9b10r(9)-7--0--7-|---7--7-7---|
|-------x-7----(7)-------8-|---8--8-8-0-|
|
| E +E  E Q        E  E  E    +H
|--------------------------|------------|
|--------------------------|------------|
|-4-(4)s9-9--------9s12-12-|-(12)-------|
|-x-(x)---x--------x-----x-|--(x)-------|
|-2-(2)s7-7--------7s10-10-|-(10)-------|
|--------------------------|------------|


  E5        B5             C
 4/4                          2/4
                           PM----------|
   Q      E E    +E   E  E E    E  E E E
|----------------------------|-----------|
|----------------------------|-----------|
|--9-------------------------|-----------|
|--9--------9b10r(9)--7--0---|-----------|
|--7--------9b10r(9)--7--0-7-|--7--7-7---|
|---------x-7----(7)-------8-|--8--8-8-0-|
|
|  E  +E  E Q        +E  E E   +H
|----------------------------|-----------|
|----------------------------|-----------|
|-13-(13)s7-7--------(7)s9-9-|-(9)-------|
|--x--(x)---x--------(x)---x-|-(x)-------|
|-11-(11)s5-5--------(5)s7-7-|-(7)-------|
|----------------------------|-----------|


  E5     B5            C          D5
 4/4                       2/4
   Q   E E    +E  E  E  E    +E   E E E
|-------------------------|-------------|
|-------------------------|-------------|
|--9----------------------|-------7-7-7-|
|--9-----9b10r(9)-7--0----|-------7-7-7-|
|--7-----9b10r(9)-7--0--7-|--(7)--5-5-5-|
|------x-7----(7)-------8-|--(8)--------|
|
|  Q.    Q        E  E  E    +E   E E E
|-------------------------|-------------|
|-------------------------|-------7-7-7-|
|-13-----9--------9s14-14-|-(14)\-7-7-7-|
|--x-----x--------x-----x-|--(x)--7-7-7-|
|-11-----7--------7s12-12-|-(12)\-5-5-5-|
|-------------------------|-------------|


    E5   B5              C
   4/4                         2/4
                           PM------------|
    Q  E E    +E   E   E   E      E  E E E
||----------------------------|------------|
||o---------------------------|------------|
||--9-------------------------|------------|
||--9----9b10r(9)--7---0------|------------|
||o-7----9b10r(9)--7---0---7--|---7--7-7---|
||-----x-7----(7)----------8--|---8--8-8-0-|
|
|   Q  E Q        +E   E  +E     +H
||----------------------------|------------|
||o-9-------------------------|------------|
||--9----9--------(9)s12-(12)-|-(12)-------|
||--9----x--------(x)---------|------------|
||o-7----7--------(7)s10-(10)-|-(10)-------|
||----------------------------|------------|


  E5      B5              C          D5
 4/4                          2/4
   Q    E E    +E   E   E  E     E   E E E  3x
|----------------------------|--------------||
|----------------------------|-------------o||
|--9-------------------------|-------7-7-7--||
|--9------9b10r(9)--7---0----|-------7-7-7--||
|--7------9b10r(9)--7---0--7-|---7---5-5-5-o||
|-------x-7----(7)---------8-|---8----------||
|
|  E  E E Q        +E   E  E    +E   E E E  3x
|----------------------------|--------------||
|----------------------------|-------7-7-7-o||
|-13-13s7-7--------(7)s14-14-|-(14)\-7-7-7--||
|--x--x---x--------(x)-----x-|--(x)--7-7-7--||
|-11-11s5-5--------(5)s12-12-|-(12)\-5-5-5-o||
|----------------------------|--------------||


  E5   B5              C
 4/4                         2/4
                         PM------------|
  Q  E E    +E   E   E   E      E  E E E
|---------------------------|------------|
|---------------------------|------------|
|-9-------------------------|------------|
|-9----9b10r(9)--7---0------|------------|
|-7----9b10r(9)--7---0---7--|---7--7-7---|
|----x-7----(7)----------8--|---8--8-8-0-|
|
| Q  E Q        +E   E  +E     +H
|---------------------------|------------|
|-9-------------------------|------------|
|-9----9--------(9)s12-(12)-|-(12)-------|
|-9----x--------(x)---------|------------|
|-7----7--------(7)s10-(10)-|-(10)-------|
|---------------------------|------------|


  E5      B5              C
 4/4                          2/4
                           PM-----------|
   Q    E E    +E   E   E  E     E  E E E
|----------------------------|------------||
|----------------------------|------------||
|--9-------------------------|------------||
|--9------9b10r(9)--7---0----|------------||
|--7------9b10r(9)--7---0--7-|---7--7-7---||
|-------x-7----(7)---------8-|---8--8-8-0-||
|
|  E  E E Q        +E   E  E    +H
|----------------------------|------------||
|----------------------------|------------||
|-13-13s7-7--------(7)s14-14-|-(14)-------||
|--x--x---x--------(x)-----x-|--(x)-------||
|-11-11s5-5--------(5)s12-12-|-(12)-------||
|----------------------------|------------||


 Outro
  B5                        A5     D5      Cmaj7
 4/4                                                 2/4
  Gtrs I, II
  E. S E E E E   E E   E     E  E  Q       E  Q       +H
|--------------------|---------------------0--0-----|-(0)----|
|--------------------|---------------------0--0-----|-(0)----|
|--------------------|-------------7-------0--0-----|-(0)----|
|-9--9-9-9-x-9---x-9-|-9\----7--7--7-------2--2-----|-(2)----|
|-9--9-9-9-x-9---x-9-|-9\----7--7--5-------3--3-----|-(3)----|
|-7--7-7-7-x-7---x-7-|-7\----5--5-------------------|--------|
|
| Gtr III
| ~~             ~                                     ~~~
| Q.     Q   S S E E   E    +E  E.   S S S E  Q        H
|--------------------|------------------------------|--------|
|--------------------|-----------------------10b12--|-10-----|
|-7----------7-7-7---|-9b11-(9)-9----x-7h9p7--------|--------|
|--------9---------9-|------------------------------|--------|
|--------------------|------------------------------|--------|
|--------------------|------------------------------|--------|


 4/4
   +W            +W            +W
|--(0)--------|--(0)--------|--(0)----*|
|--(0)--------|--(0)--------|--(0)----*|
|--(0)--------|--(0)--------|--(0)----*|
|--(2)--------|--(2)--------|--(2)----*|
|--(3)--------|--(3)--------|--(3)----*|
|-------------|-------------|---------*|
|
|   ~~~~~~~~~~~~~~~~~~~~~~~~~~~~~~~
|  +W            +W            +W
|-------------|-------------|---------*|
|-(10)--------|-(10)--------|-(10)----*|
|-------------|-------------|---------*|
|-------------|-------------|---------*|
|-------------|-------------|---------*|
|-------------|-------------|---------*|


Duration Legend
---------------
W - whole; H - half; Q - quarter; E - 8th; S - 16th; T - 32nd; X - 64th; a - acciaccatura
+ - note tied to previous; . - note dotted; .. - note double dotted
Uncapitalized letters represent notes that are staccato (1/2 duration)
Irregular groupings are notated above the duration line
Duration letters will always appear directly above the note/fret number it represents the
duration for.  Duration letters with no fret number below them represent rests.  Multi-
bar rests are notated in the form Wxn, where n is the number of bars to rest for.  Low
melody durations appear below the staff

Tablature Legend
----------------
 h   - hammer-on
 p   - pull-off
 b   - bend
 pb  - pre-bend
 r   - bend release (if no number after the r, then release immediately)
 /\  - slide into or out of (from/to "nowhere")
 s   - legato slide
 S   - shift slide
  - natural harmonic
[n]  - artificial harmonic
n(n) - tapped harmonic
 ~   - vibrato
 tr  - trill
 T   - tap
 TP  - trem. picking
 PM  - palm muting
\n/  - tremolo bar dip; n = amount to dip
 \n  - tremolo bar down
 n/  - tremolo bar up
/n\  - tremolo bar inverted dip
 =   - hold bend; also acts as connecting device for hammers/pulls
 <>  - volume swell (louder/softer)
 x   - on rhythm slash represents muted slash
 o   - on rhythm slash represents single note slash

Misc Legend
-----------
 |  - bar
||  - double bar
||o - repeat start
o|| - repeat end
*|  - double bar (ending)
 :  - bar (freetime)
 $  - Segno
 &  - Coda
Tempo markers -  = BPM(8/16=s8/s16), where s8 = swing 8ths, s16 = swing 16ths
Comments