Soundgarden - Cold Bitch Chords & Tabs

 

Cold Bitch Chords & Tabs

Soundgarden Chords & Tabs

Version: 2 Type: Tab 0 ratings
1 star 2 stars 3 stars 4 stars 5 stars
comments

Cold Bitch Tab

jesus appeared to me last night and told me that this tab is spot-on.

--------------------------------------------------------------|
--------------------------------------------------------------|
--------------------------------------------------------------|
-0-10-9-0-9-8-7-0-5-4-0-5-4-3-0-1-0-0-1--0-3--1--0-3~---------|
-0------0-9-8-7-0-----0-5-4-3-0-----0-1--0-3--1--0-3~---------|
-0------0-9-8-7-0-----0-5-4-3-0-----0-1--0-3--1--0-3~---------|
aaaaaye!
[ Tab from: http://www.guitartabs.cc/tabs/s/soundgarden/cold_bitch_tab_ver_2.html ]
---------------------------------|
---------------------------------|
---------------------------------|
---------------------------------|
---6-5------------/8-7-6---------|
-0-----0-6-5-0-3-----------------|
but in your heart I..freeze

----------------------------------------------------|
----------------------------------------------------|
-8---8----10---10------5--5-------------------------|
--8---8-8---10---10-10--5--5-5----------------------|
---6---6------8----8-----3--3-----------------------|
-------------------------------0~-------------------|
                                      I freeze....

--------------------------------------------------|
--------------------------------------------------|
--------------------------------------------------|
----10-9------------------------------------------|
-0-----------10-9---3/5---------------------------|
-0--------0-------0-------------------------------|
Comments