Soundgarden - Boot Camp Chords & Tabs

 

Boot Camp Chords & Tabs

Soundgarden Chords & Tabs

Version: 1 Type: Bass Tab 0 ratings
1 star 2 stars 3 stars 4 stars 5 stars
comments

Boot Camp Bass Tab

Soundgarden - "Boot Camp"
Bass tuning: DADG
tabbed by jjhand

Please rate my tabs and others will check them out too.

After Guitar intro, play Basss Verse Riff:
 play 2x:
G|---------------------|----------------------|
D|---------------------|----------------------|
A|---------------------|----------------------|
D|-0----5/7------------|-0----5\3-------------|

continue here:
G|--------------|--------------|--------------|
D|--------------|--------------|--------------|
A|-3------------|--------------|-/5-----------|
D|--------------|-1------------|--------------|
[ Tab from: http://www.guitartabs.cc/tabs/s/soundgarden/boot_camp_btab.html ]
G|--------------|--------------|--------------|
D|--------------|--------------|--------------|
A|--------------|--------------|--------------|riff
D|-3------------|-6------------|-8------------|ends

Replay Bass verse Riff when vocals enter


Prechorus
G|---------------------|----------------------|
D|---------------------|----------------------|
A|---------------------|----------------------|
D|-0----5/7------------|-0----5\3-------------|


Chorus - play 4x
G|--------------|---------------|
D|--------------|---------------|
A|-3------------|---------------|
D|--------2-----|-3------6------|
"Far Away  ....  Far away from here"


Play Prechorus 2x

Ending note
G|--------------|
D|--------------|
A|-3------------|
D|--------------|

/ and \ are slides
Comments