Soundgarden - Black Hole Sun Chords & Tabs

 

Black Hole Sun Chords & Tabs

Soundgarden Chords & Tabs

Version: 6 Type: Tab 0 ratings
1 star 2 stars 3 stars 4 stars 5 stars
comments

Black Hole Sun Tab

artist:sound garden
title black hole sun
tabbed by pyromaniac41288
[ Tab from: http://www.guitartabs.cc/tabs/s/soundgarden/black_hole_sun_tab_ver_6.html ]
e|---------12~----------------10-(10)~--------13--------------------12(12)~~~-|
b|------12----12----12------11-------------13----13----13~-------12-----------|
g|---12----------12------12-------------10----------10-----10/12--------------|
d|----------------------------------------------------------------------------|
a|----------------------------------------------------------------------------|
e|----------------------------------------------------------------------------|


e|---------11~---------------10~-----------------12----------10----------11~~-|
b|------11----11----11~---10----10----10------12----------12----------13------|
g|---12----------12----12----------12------12-------12-10-------10-13---------|
d|----------------------------------------------------------------------------|
a|----------------------------------------------------------------------------|
e|----------------------------------------------------------------------------|
Comments