Soundgarden - Black Hole Sun Chords & Tabs

 

Black Hole Sun Chords & Tabs

Soundgarden Chords & Tabs

Version: 4 Type: Tab 0 ratings
1 star 2 stars 3 stars 4 stars 5 stars
comments

Black Hole Sun Tab

   
SOUNDGARDEN
Black Hole Sun (Lyrics & Music by Chris Cornell)

Tab by Lirikal

Tuning: Eb Ab Db Gb Bb Eb

  b=Bend
  h=HammerOn
  p=PullOff
  s=Slide
  /=Slide
  T=Tapping
  ~=Vibrato
  x=Mute


INTRO:

     Asus4          C6/9     G5             F#5        Fsus4          E7
eb:----------------------------------------------------------------------------
Bb:----------------------------------------------------------------------------
Gb:--------7--------------7--------7--------------6----------5--------------4--
Db:------7---7----------7--------5---5----------4----------3---3----------2----
Ab:----7-------7------7--------5-------5------4----------3-------3------5------
Eb:--5-----------5--8--------3-----------0--2--------0-1-----------1--0--------

VERSE:

     A6                  Am/C      G5                  F#m
eb:--------14------------------12--------15------------------------14--
Bb:-----14-----14----14-----13--------15-----15----15--15-------14-----
Gb:--14-----------14-----14--------12-----------12--------12s14--------
Db:--------------------------------------------------------------------
Ab:--------------------------------------------------------------------
Eb:--------------------------------------------------------------------
     
     F                   Esus4               A6          A7           Bb      x2
eb:--------13------------------12------------------14----------12-----------13-|
Bb:-----13-----13----13-----12-----12----12-----14----------14-----------15----|
Gb:--14-----------14-----14-----------14-----14-------14-12-------12--15------*|
Db:---------------------------------------------------------------------------*|
Ab:----------------------------------------------------------------------------|
Eb:----------------------------------------------------------------------------|

CHORUS:
     Fsus4          E7           A5               C            Fsus4
eb:-----------------------------------------------------0---------------------
Bb:---------------------------------------------------1---1-------------------
Gb:--------3--------------4----------2-------2------0-------0--------3--------
Db:------3---3----------2---2------2-------2-----------------------3---3------
Ab:----3-------3------5-------5-------------------3--------------3-------3----
Eb:--1-----------1--0------------5-----5-3------3--------------1-----------1--
                   _________________________________________________________
                  |1.                 |2.3.
     E7              D            E5     D         C         Fsus4
eb:---------------|--2--2-3-2--2--0---|--2--2-3-2--0h1-0--------------------
Bb:---------------|--3--3---3--3--0---|--3--3---3--1---1--1-----------------
Gb:--------4------|--2--2---2--2--x--*|--2--2---2--0---0--0--------3--------
Db:------2---2----|--0--0---0--0--2--*|--0--0---0---------2------3---3------
Ab:----5-------5--|---------------2---|------------------------3-------3----
Eb:--0------------|---------------0---|----------------------1-----------1--
[ Tab from: http://www.guitartabs.cc/tabs/s/soundgarden/black_hole_sun_tab_ver_4.html ]
     E7           A5               C            Fsus4          E7
eb:--------------------------------------0----------------------------------
Bb:------------------------------------1---1--------------------------------
Gb:--------4----------2-------2------0-------0--------3--------------4------
Db:------2---2------2-------2-----------------------3---3----------2---2----
Ab:----5-------5-------------------3--------------3-------3------5-------5--
Eb:--0------------5-----5-3------3--------------1-----------1--0------------

        D            C            E5          x4
eb:-|---2--2h3-2-----0--0h1-0-----0--0-0--0---|
Bb:-|---3--3---3--3--1--1---1--1--0--0-0--0---|
Gb:-|*--2--2---2--2--0--0---0--0-------------*|
Db:-|*--0--0---0--0------------2--2--2-2--2--*|
Ab:-|-----------------------------2--2-2--2---|
Eb:-|-----------------------------0--0-0--0---|


SOLO:                    w/wha                x5
eb:---------------------|-----------------------|-----------19-19-19-19-19-19--
Bb:---------------------|---10-10-10-10-10-10---|--10-10-10--------------------
Gb:---------------------|*--9--9--9--9--9--9---*|--9--9--9---------------------
Db:---------------------|*---------------------*|------------------------------
Ab:--5-4--2--4s5--------|-----------------------|------------------------------
Eb:--------------5-4--3-|-----------------------|------------------------------

eb:--19-19-19-19-19-19-19-17--/5---------------------------14h17-14h17-14-14--
Bb:-------------------------------7-10-7---7----------------------------------
Gb:--------------------------------------9---9-7---7h9--16--------------------
Db:----------------------------------------------9----------------------------
Ab:---------------------------------------------------------------------------
Eb:---------------------------------------------------------------------------

eb:--/7-7-7-10-10-10-9-9-9------------------------------------------------
Bb:------------------------10-10-10-7-7-7-10b12~--10-12~--12/--15b--(16)--
Gb:-----------------------------------------------------------------------
Db:-----------------------------------------------------------------------
Ab:-----------------------------------------------------------------------
Eb:-----------------------------------------------------------------------

eb:-------------------------------------------10-10-10--------------------
Bb:--15-15b--(17)b--(15)-12-15-12-10-12-10-10----------10-10-10-9p7-------
Gb:-----------------------------------------------------------------9p7---
Db:-----------------------------------------------------------------------
Ab:-----------------------------------------------------------------------
Eb:-----------------------------------------------------------------------

                                                                    PB14 
eb:----------------------------------12-14-12-14-14b(15)b(14)-12-14-(15)b(14)--
Bb:----------------------------12----------------------------------------------
Gb:--9-7-9b-(11)b-(9)--9/--/14----14-------------------------------------------
Db:----------------------------------------------------------------------------
Ab:----------------------------------------------------------------------------
Eb:----------------------------------------------------------------------------

           PB14            PB14                                T
eb:--12-14-(15)b(14)-12-14-(15)b(14)p12-------------------------------------
Bb:--------------------------------------14--14h15p14----14-------14h15p14--
Gb:---------------------------------------------------16----14-19-----------
Db:-------------------------------------------------------------------------
Ab:-------------------------------------------------------------------------
Eb:-------------------------------------------------------------------------

eb:--------------------------
Bb:--14h15p14----------------
Gb:-----------16p14-16p14/---
Db:--------------------------
Ab:--------------------------
Eb:--------------------------


OUTRO:
                         Asus2#11     G5A5
eb:--------------------------------------------
Bb:----------------------2--2------------------
Gb:----------------------2--2------------------
Db:----------------------0--0------------------
Ab:--5-4--2--4s5---------x--x---------5s7--7---
Eb:--------------5-4--3--3--3---------3s5--5---


ENJOY IT!
Comments