Soulwax - Saturday Chords & Tabs

 

Saturday Chords & Tabs

Soulwax Chords & Tabs

Version: 1 Type: Bass Tab 1 rating
1 star 2 stars 3 stars 4 stars 5 stars
comments

Saturday Bass Tab

Bass Tab

Artist: Soulwax
Song: Saturday
Album: Much Against Everyone's Advice
Transcribed by Jonathan Hamilton
                                                                        
G-----------------------------------------------------------------------
D-----------------------------------------------------------------------
A-----------------------------------------------------------------------
E---2--2--0--0--2--2--0--0--2--2--0--0--2--2--0--0--2--2--0--0--2--2----
                                                                        

                               We think.....                                        
G-----------------------------------------------------------------------
D------------------------------0--0--0-----------------------------0----
A---------------------------------------3--3--3--0--0--0--3--3--3-------
E---0--0--2--2--0--0--2--2--0-------------------------------------------
                                                                        
[ Tab from: http://www.guitartabs.cc/tabs/s/soulwax/saturday_btab.html ]
                                        Walking like.....                                
G-----------------------------------------------------------------------
D---0--0----------------------------------------------------------------
A---------3--3--3--0--0--0--0-----------5--5--5--5--5--5--5--5--5--4----
E------------------------------0--3--5----------------------------------
                                                                        

                               Sometimes love......                                         
G-----------------------------------------------------------------------
D-----------------------------------------------------------------------
A---4--4--4--4--4--4-----------------------------0--0--0--0--0--3--3----
E---------------------1--1--1--2--2--2--4--4--4-------------------------
                                                                        

                                                                        
G-----------------------------------------------------------------------
D------0--0--0--0--0--0-------------------------------------------------
A---3--------------------4--4--4--4--------------------------------0----
E------------------------------------1--1--1--2--2--2--2--4--4--4-------
                                                                        

                                                                        
G-----------------------------------------------------------------------
D------------------------0--0--0--0--0--0-------------------------------
A---0--0--0--0--3--3--3--------------------4--4--4--4-------------------
E------------------------------------------------------1--1--1----------
                                                                        
Repeat the above and you should get it



Any comments or suggestions please e-mail me at

h4m1lt0nj@aol.com

Comments