Soulwax - Much Against Everyones Advice Chords & Tabs

 

Much Against Everyones Advice Chords & Tabs

Soulwax Chords & Tabs

Version: 4 Type: Tab 0 ratings
1 star 2 stars 3 stars 4 stars 5 stars
comments

Much Against Everyones Advice Tab

ARTIST: SOULWAX
SONG: MUCH AGAINST EVERYONE'S ADVICE
TRANSCRIBED BY PAUL MCCARTHY

INTRO:
(DROP D TUNING)
D---------------------------------------------3-4-5--5-5-5-----------------------|
A--5-5---5-5-5----5-5-5--5-5-5--5-4-3--3-3-3-----------------3-4-5--5-5-5--5-5-5-|
D--------------------------------------------------------------------------------|
G--------------------------------------------------------------------------------|
B--------------------------------------------------------------------------------|
e--------------------------------------------------------------------------------|

D---------0--4-5-5--8-8--7--0-----------------------------------------|
A-5H-3-3--0--4-5-5--8-8--7--0-----------------------------------------|
D----5-5--0--4-5-5--8-8--7--0-----------------------------------------|
G----5-5--------------------------------------------------------------|
B---------------------------------------------------------------------|
e---------------------------------------------------------------------|

( H = HARMINIC, LIGHTLY TOUCH STRING ABOVE FRET BAR BETWEEN 5/6 FRET AND PLUCK
THEN QUICKLY PULL FINGER OFF STRING)

verse is same as intro

Chorus:
[ Tab from: http://www.guitartabs.cc/tabs/s/soulwax/much_against_everyones_advice_tab_ver_4.html ]
D------------------------------5------4-----2------4-----5-----------------------------------|
A--5------4------2-----0---------0------0-----0------0-----0-----0---------------------------|
D----------------------------------0------0-----0------0-----0-------------------------------|
G----0------0------0------0-----------------------------------------0---0--------------------|NOT TOO SURE ABOUT
B------0------0------0------0-----------------------------------------0---0-THIS BIT (THE 0--|S)
e--------------------------------------------------------------------------------------------|

D------------------------------5------4-----2------4-----5-----------------------------------|
A--5------4------2-----0---------0------0-----0------0-----0-----0---------------------------|
D----------------------------------0------0-----0------0-----0-------------------------------|
G----0------0------0------0-----------------------------------------0---0--------------------|NOT TOO SURE ABOUT
B------0------0------0------0-----------------------------------------0---0-THIS BIT (THE 0--|S)
e--------------------------------------------------------------------------------------------|

D----2-2-2-2-2-4-4-5-5-5-5-7-7-7-7------------------------------------------------|
A----2-2-2-2-2-4-4-5-5-5-5-7-7-7-7------------------------------------------------|
D----2-2-2-2-2-4-4-5-5-5-5-7-7-7-7------------------------------------------------|
G---------------------------------------------------------------------------------|
B---------------------------------------------------------------------------------|
e---------------------------------------------------------------------------------|

D---0-0-0-0-0-6-6-6-7-7-7-7-7-7-7-7------------------------------------------------------------|
A---0-0-0-0-0-6-6-6-7-7-7-7-7-7-7-7------------------------------------------------------------|
D---0-0-0-0-0-6-6-6-7-7-7-7-7-7-7-7------------------------------------------------------------|
G----------------------------------------------------------------------------------------------|
B----------------------------------------------------------------------------------------------|
e----------------------------------------------------------------------------------------------|
Comments