Soulja Boy - Crank Dat Chords & Tabs

 

Soulja Boy Chords & Tabs

Version: 3 Type: Tab 0 ratings
1 star 2 stars 3 stars 4 stars 5 stars
comments

Crank Dat Tab

--------------------------------------------------------------------------------------
Tabber: Justin Christopher V. Salvador
Date added: May 15, 2008
Tuning: Drop D
Time Elapsed: 8 - 10 minutes

Note:
Fell free to comment :)
--------------------------------------------------------------------------------------
Crank Dat (Travis Barker Re-Mix) - Soulja Boy
--------------------------------------------------------------------------------------


Tuning: Drop D (DADGBe)

Guitar 1: (Rythm)
Guitar 2: (Lead)



Intro: Clean Electric

Guitar 2:  
e|--8-------8------------------------------------------|
B|----8-9-----8----------------------------------------|
G|-----------------------------------------------------| (3x)
D|-----------------------------------------------------|
A|-----------------------------------------------------|
D|-----------------------------------------------------|





Chorus/s: Kick in the distortion

Guitar 1: 
e|---------------------------------------------|
B|---------------------------------------------|
G|---------------------------------------------|
D|-10----10-x-10--10-x-10------10----10-x-10---|
A|-10----10-x-10--10-x-10------10----10-x-10---|
D|-10----10-x-10--10-x-10------10----10-x-10---|


e|---------------------------------------------|
B|---------------------------------------------|
G|---------------------------------------------|
D|-6----6-x-6--6-x-6-------8----8-x-8--8-x-8---|
A|-6----6-x-6--6-x-6-------8----8-x-8--8-x-8---|
D|-6----6-x-6--6-x-6-------8----8-x-8--8-x-8---|


Guitar 1: 
e|---------------------------------------------|
B|---------------------------------------------|
G|---------------------------------------------|
D|-10----10-x-10--10-x-10------10----10-x-10---|
A|-10----10-x-10--10-x-10------10----10-x-10---|
D|-10----10-x-10--10-x-10------10----10-x-10---|


e|---------------------------------------------|
B|---------------------------------------------|
G|---------------------------------------------|
D|-6----6-x-6--6-x-6-------8----8-x-8--8-x-8---|
A|-6----6-x-6--6-x-6-------8----8-x-8--8-x-8---|
D|-6----6-x-6--6-x-6-------8----8-x-8--8-x-8---|




Guitar 2: 
e|-8-------8-----------------------------------|
B|---8-9-----8---------------------------------|
G|---------------------------------------------|
D|---------------------------------------------|
A|---------------------------------------------|
D|---------------------------------------------|







Verse/s:
[ Tab from: http://www.guitartabs.cc/tabs/s/soulja_boy/crank_dat_tab_ver_3.html ]
Guitar 1: Palm Mute
e|---------------------------------------------|
B|---------------------------------------------|
G|---------------------------------------------|
D|-10-10-10-10-10-10-10-10-10-10-10-10-10-10---|
A|-10-10-10-10-10-10-10-10-10-10-10-10-10-10---|
D|-10-10-10-10-10-10-10-10-10-10-10-10-10-10---|
    .  .  .  .  .  .  .  .  .  .  .  .  .  .


Guitar 1: 
e|---------------------------------------------|
B|---------------------------------------------|
G|---------------------------------------------|
D|-6-6-6-6-6-6-6-6------8-8-8-8-8-8-8-8-8------|
A|-6-6-6-6-6-6-6-6------8-8-8-8-8-8-8-8-8------|
D|-6-6-6-6-6-6-6-6------8-8-8-8-8-8-8-8-8------|
   . . . . . . . .      . . . . . . . . . 


Guitar 2: 
e|-8-------8-----------------------------------|
B|---8-9-----8---------------------------------|
G|---------------------------------------------|
D|---------------------------------------------|
A|---------------------------------------------|
D|---------------------------------------------|


Repeat:
(Chorus)
(Verse)
(Chorus)
(Verse)
(Chorus)



Solo:
Guitar 2: 
e|-8--------8-8--------------------------------|
B|---8-8-9-----8-8-9-9-------------------------|
G|---------------------------------------------|
D|---------------------------------------------|
A|---------------------------------------------|
D|---------------------------------------------|


Guitar 1: Palm Mute
e|---------------------------------------------|
B|---------------------------------------------|
G|---------------------------------------------|
D|-10-10-10-10-10-10-10-10-10-10-10-10-10-10---|
A|-10-10-10-10-10-10-10-10-10-10-10-10-10-10---|
D|-10-10-10-10-10-10-10-10-10-10-10-10-10-10---|
    .  .  .  .  .  .  .  .  .  .  .  .  .  .


Guitar 1: 
e|---------------------------------------------|
B|---------------------------------------------|
G|---------------------------------------------|
D|-6-6-6-6-6-6-6-6------8-8-8-8-8-8-8-8-8------|
A|-6-6-6-6-6-6-6-6------8-8-8-8-8-8-8-8-8------|
D|-6-6-6-6-6-6-6-6------8-8-8-8-8-8-8-8-8------|
   . . . . . . . .      . . . . . . . . . 





Outro: Slight Delay
e|-8--------8----------------------------------|
B|---8-9------8--------------------------------|
G|---------------------------------------------|
D|---------------------------------------------|
A|---------------------------------------------|
D|---------------------------------------------|

Repeat a couple of times

Legend:
x - mute
. - palm mute
Comments