Soulfly - Tribe Chords & Tabs

 

Tribe Chords & Tabs

Soulfly Chords & Tabs

Version: 1 Type: Bass Tab 0 ratings
1 star 2 stars 3 stars 4 stars 5 stars
comments

Tribe Bass Tab

   
Six-String, Bass

G|---------------|
D|---------------|
A|---------------|
E|---------------|
B|4-X-X-4--2-5-4-|

Pre-verse/ pre-chorus (it's just there!)

G|------------------|
D|------------------|
A|------------------|
E|------------------|
B|-0--03--00--0-0-3-|

Chorus

G|-----------------------------------|
D|-----------------------------------|
A|-----------------------------------|
E|-----------------------------------|
B|-0-0-1-0-1-0-1-0--0-0-1-0-1-0-1--6-|

Interlude

G|-------------------|
D|-------------------|
A|-------------------|
E|-------------------|
B|-6-0-6-0-6-0-6-0-6-|
[ Tab from: http://www.guitartabs.cc/tabs/s/soulfly/tribe_btab.html ]
G|------------------------|
D|------------------------|
A|------------------------|
E|------------------------|
B|-0-0--0-0--0-0--0-0--6--|b

G|------------------------|
D|------------------------|
A|---------------------9--|b
E|------------------------|
B|-0-0--0-0--0-0--0-0-----|

Tribal drum mid 8th
G|-----------------------------------------|
D|12121212121212121212---------------------|
A|--------------------12121212121212121212-|
E|-----------------------------------------|
B|-----------------------------------------|
* The above are twelves (12) no one two one tw

Outro

G|-----------------------|
D|-----------------------|
A|-----------------------|
E|-----------------------|
B|-0-0--0-3--1--3-1--3-0-|
Comments