Soulfly - Terrorist Chords & Tabs

 

Terrorist Chords & Tabs

Soulfly Chords & Tabs

Version: 1 Type: Tab 0 ratings
1 star 2 stars 3 stars 4 stars 5 stars
comments

Terrorist Tab

Soulfly
Terrorist
Tabbed By: Bash

Tuning: Drop d

INTRO/VERSE

|-b-|-------------------| x12
|-F#|-------------------|
|-D-|-------------------|
|-A-|-------------------|
|-E-|--0--6-0--6-0-6-0--|
|-B-|--0--6-0--6-0-6-0--|


INTERLUDE



INTRO/VERSE

COROUS
[ Tab from: http://www.guitartabs.cc/tabs/s/soulfly/terrorist_tab.html ]
|-----------------| x12
|-----------------|
|-----------------|
|-----------------|
|--0--3--2--1--4--|
|--0--3--2--1--4--|

BASS INTERLUDE

INTRO/VERSE

INTERLUDE



CHOROUS

OUTRO

|---------------------------------| 
|---------------------------------|
|---------------------------------|      
|---------------------------------|
|----3h5---3h6---3h5---3h6--------|
|--0-----0-----0-----0-----0-0-0--|
 PM-     -     -     -
Comments