Soulfly - Son Song Chords & Tabs

 

Son Song Chords & Tabs

Soulfly Chords & Tabs

Version: 2 Type: Tab 0 ratings
1 star 2 stars 3 stars 4 stars 5 stars
comments

Son Song Tab

Liam Connolly Tab #5
OK, this is the song that Soulfly does with Sean Lennon.  
Tuning: BEADGB

1st Guitar: (Sorta Distorted)
-----------------------------------
-----------------------------------
-----------------------------------
-----------------------------------
-----------------------------------
-0-0-5-4-3-0-3-4-5--0-0-5-4-3-0-3-4

All Guitars: (Heavily Distorted)
-----------------------------------
-----------------------------------
-----------------------------------
-----------------------------------
-----7-6-5---5-6-7------7-6-5---5-6
-0-0-5-4-3-0-3-4-5--0-0-5-4-3-0-3-4

This is played while Sean is singing.  
Then  comes this little interlude thing:
---------------7/19b-
---------------------
---------------------
---------------------
---------------------
-0-00000000----------
[ Tab from: http://www.guitartabs.cc/tabs/s/soulfly/son_song_tab_ver_2.html ]
Then comes Max's Part:
-------------------------
-------------------------
-------------------------
-------------------------
-------------------------
0-000000-17-000-17-000---

The second guitar does this:
----------------------------
----------------------------
----------------------------
----------------------------
----------------------------
16-161616161616-17-000-17-000
(those are 16, not 1+6)

Thatrs about the whole song.  
At the end with the keyboards, 
the bass and guitar can sorta be heard,
and they play variations of this rythym:

---------------------------------------
---------------------------------------
---------------------------------------
---------------------------------------
---------------------------------------
-----000-222-333-222-000---------------
just mess around with the B, C# and D
notes.  Listen to the song to get the rythym.

E-mail me stuff at anonymousapokalypz@yahoo.com
Visit our website at www.geocities.com/apokalypzband


Comments