Soulfly - Son Song Chords & Tabs

 

Son Song Chords & Tabs

Soulfly Chords & Tabs

Version: 1 Type: Tab 0 ratings
1 star 2 stars 3 stars 4 stars 5 stars
comments

Son Song Tab

   
Soulfly- Son Song
1 1/2 steps, then drop D

Intro                                  (band enters)
e|-------------------------------	-------
b|-------------------------------	-------
g|-------------------------------	-------
d|-------------------------------	-------
a|-------------------------------	0-3-4-5
d|-0-0-5-4-3--0-3-4-5--0-0-5-4-3-       0-3-4-5      


(Sean's verses)
e|------------------------------------
b|------------------------------------
g|------------------------------------
d|------------------------------------
a|-0-0-5-4-3--0-3-4-5--0-0-5-4-3--0-3^
d|-0-0-5-4-3--0-3-4-5--0-0-5-4-3--0-3^

Interlude(before max's verse)
e|--------------------------------------
b|--------------------------------------
g|-7~~~~~~~~~~~~~~~~~~~7/19~~~~~~~~~~~~~
d|--------------------------------------
a|--------------------------------------
d|--------------------------------------
[ Tab from: http://www.guitartabs.cc/tabs/s/soulfly/son_song_tab.html ]
(w/ some flanger)
e|----------------------------------
b|----------------------------------
g|----------------------------------
d|----------------------------------
a|----------------------------------
d|-0-0-0-0-0-0-0-0-17-0-0-0-17-0-0-0

(Max's verses) guitar #1
e|----------------------------------
b|----------------------------------
g|----------------------------------
d|----------------------------------
a|------------------PM_ _ _    _ _ _   
d|-0-0-0-0-0-0-0-0-17-0-0-0-17-0-0-0

guitar #2
e|------------------------------------------
b|------------------------------------------
g|------------------------------------------
d|------------------------------------------
a|-------------------------PM _ _ _    _ _ _
d|-16-16-16-16-16-16-16-16-17-0-0-0-17-0-0-0

Psychomunky here(for all the ppl who know me), I tabbed "Back to the Primitive" also, check it out 
Comments