Soulfly - Son Song Chords & Tabs

 

Son Song Chords & Tabs

Soulfly Chords & Tabs

Version: 2 Type: Bass Tab 0 ratings
1 star 2 stars 3 stars 4 stars 5 stars
comments

Son Song Bass Tab

FILL I, crashing in on the intro guitar

G|----------------------------------------------------|
D|----------------------------------------------------|
A|----------------------------------------------------|
B|--3-3-4---------------------------------------------|

FIG I, Lennon`s part

G|----------------------------------------------------|
D|----------------------------------------------------|
A|----------------------------------------------------|
B|--0--0--5-4-3--0-345--0--0--5-4-3-0-3---------------|

FILL II, last repetiton of FIG I

G|----------------------------------------------------|
D|----------------------------------------------------|
A|----------------------------------------------------|
B|--0--0--5-4-3--0-345--0--0--5-4-3-0h3/10------------|

FIG II
[ Tab from: http://www.guitartabs.cc/tabs/s/soulfly/son_song_btab_ver_2.html ]
G|----------------------------------------------------|
D|----------------------------------------------------|
A|----------------------------------------------------|
B|--0--33-3/10----------------------------------------|

FIG III, Max`part

G|----------------------------------------------------|
D|----------------------------------------------------|
A|----------------------------------------------------|
B|--x0--3-3-3/10--x0--3-3-3/5-------------------------|

OUTRO

G|----------------------------------------------------|
D|----------------------------------------------------|
A|--/5-4---2-0-4-------/5-4---2-0-4-------------------|
B|-------8-------8-7--------8-------8----8------------|

G|----------------------------------------------------|
D|----------------------------------------------------|
A|--/5-4---2-0-4-------/5-4---2-0-4-------------------|
B|-------8-------8-7--------8-------8~~~~~------------|
Comments