Soulfly - Seek N Strike Chords & Tabs

 

Seek N Strike Chords & Tabs

Soulfly Chords & Tabs

Version: 8 Type: Tab 0 ratings
1 star 2 stars 3 stars 4 stars 5 stars
comments

Seek N Strike Tab

This song is played drop B               Soulfly: Seek 'N' strike


|----------------------------------------------------
|----------------------------------------------------
|----------------------------------------------------
|----------------------------------------------------   main riff
|----------------------------------------------------
|-1-0--1-0-0-3-0-0-1-0-0-----1-0--1-0-0-3-0-0-1-0-0--


|-------------------------      |-----------------------
|-------------------------      |-----------------------
|-------------------------      |------13-13-13-13------ play as needed
|-------------------------  rpt |-------x--x--x--x------
|----333-666-777-121212---      |------11-11-11-11------
|----333-666-777-121212---      |-----------------------

[ Tab from: http://www.guitartabs.cc/tabs/s/soulfly/seek_n_strike_tab_ver_8.html ]
|---------------------------------------
|---------------------------------------
|---------------------------------------
|---------------------------------------          
|-----6-0-6-00-6-00-6-0-9999------------  (chorus play it fast)
|-----6-0-6-00-6-00-6-0-9999------------


|--------------------------------------------------
|--------------------------------------------------
|--------------------------------------------------
|--------------------------------------------------  this is played
|--------------------------------------------------  with the solo     
|--0-0-3b-0-----0-0-3b-0-----0-0-3b-0-----0-0-3b-0-


|------------------------15-14-17----------20b----------
|---------------------15----------15-16-18--------------
|--14-12-11-7-8-12-14-----------------------------------
|-------------------------------------------------------    
|-------------------------------------------------------
|-------------------------------------------------------
 
Tabbed by mike Lummis "Zumbi e' o senhor das guerras, Zumbi e' o senhor
das demandas, Quando zumbi chega, E Zumbi quem manda" (Crenca popular)
Comments