Soulfly - Seek N Strike Chords & Tabs

 

Seek N Strike Chords & Tabs

Soulfly Chords & Tabs

Version: 3 Type: Tab 0 ratings
1 star 2 stars 3 stars 4 stars 5 stars
comments

Seek N Strike Tab

   
Soulfly - Seek 'N' Strike
Tuning - Drop D, tuned down 1 and a half steps 
Low to high = B F# B E G# C#
Transcribed by Shawn Payne

Key 
x = palm mute
* = natural harmonics
~ = vibrato
B = bend
h = hammer on
p = pull off


This is what i got from watching the video.


intro

C#---------------------------------------------------------------- 4x
G#----------------------------------------------------------------
E ----------------------------------------------------------------
B ----------------------------------------------------------------
F#----------------------------------------------------------------
B --2--1--0-1--1--3-2-1--0-1--------------------------------------


Main riff

C#---------------------------------------------------------------- 8x
G#----------------------------------------------------------------
E ----------------------------------------------------------------
B ----------------------------------------------------------------
F#----------------------------------------------------------------
B --2--1--0-1--1--3-2-1--0-1--------------------------------------


C#---------------------------------------------------------------- 4x
G#----------------------------------------------------------------
E ----------------------------------------------------------------
B --3-3-3-3--6-6-6-6--7-7-7-7--10-10-10-10------------------------
F#--3-3-3-3--6-6-6-6--7-7-7-7--10-10-10-10------------------------
B --3-3-3-3--6-6-6-6--7-7-7-7--10-10-10-10------------------------



C#---------------------------------------------------------------- 8x
G#----------------------------------------------------------------
E ----------------------------------------------------------------
B ----------------------------------------------------------------
F#----------------------------------------------------------------
B --2--1--0-1--1--3-2-1--0-1--------------------------------------


C#---------------------------------------------------------------- 4x
G#----------------------------------------------------------------
E ----------------------------------------------------------------
B --3-3-3-3--6-6-6-6--7-7-7-7--10-10-10-10------------------------
F#--3-3-3-3--6-6-6-6--7-7-7-7--10-10-10-10------------------------
B --3-3-3-3--6-6-6-6--7-7-7-7--10-10-10-10------------------------

[ Tab from: http://www.guitartabs.cc/tabs/s/soulfly/seek_n_strike_tab_ver_3.html ]
C#---------------------------------------------------------------- 8x
G#----------------------------------------------------------------
E ----------------------------------------------------------------
B ---------------------------9-10-10-10---------------------------
F#---------------------------9-10-10-10---------------------------
B --6-0-6-0-6-0-6-0-6-0-6-0--9-10-10-10---------------------------



C#---------------------------------------------------------------- 12x
G#----------------------------------------------------------------
E ----------------------------------------------------------------
B ----------------------------------------------------------------
F#----------------------------------------------------------------
B --2--1--0-1--1--3-2-1--0-1--------------------------------------


C#---------------------------------------------------------------- 4x
G#----------------------------------------------------------------
E ----------------------------------------------------------------
B --3-3-3-3--6-6-6-6--7-7-7-7--10-10-10-10------------------------
F#--3-3-3-3--6-6-6-6--7-7-7-7--10-10-10-10------------------------
B --3-3-3-3--6-6-6-6--7-7-7-7--10-10-10-10------------------------


C#---------------------------------------------------------------- 8x
G#----------------------------------------------------------------
E ----------------------------------------------------------------
B ---------------------------9-10-10-10---------------------------
F#---------------------------9-10-10-10---------------------------
B --6-0-6-0-6-0-6-0-6-0-6-0--9-10-10-10---------------------------


C#---------------------------------------------------------------- 2x
G#----------------------------------------------------------------
E ----------------------------------------------------------------
B ----------------------------------------------------------------
F#--x-x-x-x-x-x-x--x-x-x-x-x--x-x-x-------------------------------
B --0-0-4p3-0-0-0--4p3-0-0-0--4p3-0-------------------------------

play this for the rest of the song 
C#---------------------------------------------------------------- 
G#----------------------------------------------------------------
E ----------------------------------------------------------------
B ----------------------------------------------------------------
F#----------------------------------------------------------------
B --0-0-4p3-0-0-0--4p3-0-0-0--4p3-0-------------------------------

i couldent figure out the solo but the last riff is played through 
the solo.
Comments