Soulfly - Seek N Strike Chords & Tabs

 

Seek N Strike Chords & Tabs

Soulfly Chords & Tabs

Version: 1 Type: Tab 0 ratings
1 star 2 stars 3 stars 4 stars 5 stars
comments

Seek N Strike Tab

Soulfly-Seek n Strike
tabbed by Mike Gunda

this song is fuckin Kunting-end of fuckin message.


intro
C#----------------------------------------------------------------
G#----------------------------------------------------------------
E ----------------------------------------------------------------
B ----------------------------------------------------------------
F#----------------------------------------------------------------
B --2--0--1--0----0-3-3-0--1--0-----------------------------------

main riff
C#----------------------------------------------------------------
G#----------------------------------------------------------------
E ----------------------------------------------------------------
B --2--0--1--0----0-3-3-0--1--0-----------------------------------
F#--2--0--1--0----0-3-3-0--1--0-----------------------------------
B --2--0--1--0----0-3-3-0--1--0-----------------------------------
[ Tab from: http://www.guitartabs.cc/tabs/s/soulfly/seek_n_strike_tab.html ]
pre-chorus
C#----------------------------------------------------------------
G#----------------------------------------------------------------
E ----------------------------------------------------------------
B ----6-6-x--9-9-x--12-12-x--15-15--------------------------------
F#----6-6-x--9-9-x--12-12-x--15-15--------------------------------
B ----6-6-x--9-9-x--12-12-x--15-15--------------------------------

C#----------------------------------------------------------------
G#----------------------------------------------------------------
E ----------------------------------------------------------------
B ---2-2---0-0---2-2---0-0---2-2---0-0------6-6-6-6---------------
F#---2-2---0-0---2-2---0-0---2-2---0-0------6-6-6-6---------------
B ---2-2---0-0---2-2---0-0---2-2---0-0------6-6-6-6---------------

P.M.------------------------------------------------------------P.M.

Pretty much it.
Kick ass.
Fuck Fuck Yeah.
Comments