Soulfly - Prophet Chords & Tabs

 

Prophet Chords & Tabs

Soulfly Chords & Tabs

Version: 2 Type: Tab 0 ratings
1 star 2 stars 3 stars 4 stars 5 stars
comments

Prophet Tab

intro
--
--
--
--
--
--3-0-0-0-1-0-0-0-3-0-0-0-6-0-0-0

--
--
--
--3-0-0-0-1-0-0-0-3-0-0-0-6-0-0-0
--3-0-0-0-1-0-0-0-3-0-0-0-6-0-0-0
--3-0-0-0-1-0-0-0-3-0-0-0-6-0-0-0

vers (not sure about this part)
--
--
--7--/--10
--x--/--x
--5--/--8
--0-----0

interlude
--12/0-------12/0
--12/0-------12/0
--12/0-------12/0
-------------------0-0-0-1-2
-------------------0-0-0-1-2
--------0-0--------0-0-0-1-2
[ Tab from: http://www.guitartabs.cc/tabs/s/soulfly/prophet_tab_ver_2.html ]
chorus
--
--
--
--6-7-6--0--4-3
--4-5-4--0--4-3
---------0--4-3

vers, interlude, chorus again

outro
--
--
--
--
--4-4-4-4-4-4-4-4-5-5-5-5-5-5-5-5-7-7-7-7-7-7-7-7-8-8-8-8-8-8-8-8-8
--

--
--
--                                         un, dos, tres, quatre
--
--10-10-9-9-10-10-9-9-10-10-9-9-10-10-9-9-
--

--
--
--                             repeat...
--0-1--0-0-0-1--0-1--0-0-0-1
--0-1--0-0-0-1--0-1--0-0-0-1
--0-1--0-0-0-1--0-1--0-0-0-1

end
--
--
--
--1-0
--1-0
--1-0
Comments