Soulfly - Prejudice Chords & Tabs

 

Prejudice Chords & Tabs

Soulfly Chords & Tabs

Version: 2 Type: Tab 0 ratings
1 star 2 stars 3 stars 4 stars 5 stars
comments

Prejudice Tab

   
"Prejudice" by Soulfly
Off their self titled debut album
Tabbed by Dom Alessio 

Tune down to B (B E A D F# B)

LEGEND:
	/ or \ - slide up or down
	~~     - vibrato
	p      - pull off
  	h	 - hammer on
 	b	 - bend
	N	 - natural harmonics
	A	 - artifical harmonics
	*	 - palm mute
	trem.  - tremelo pick
        ^	 - arpeggiate

----------------------------------------------------------------------------

Main Riff

B|-----------------------------|
F|-----------------------------|
D|--------------------------0--|
A|-----------------------------|
E|-----------------------------|
B|-2h3-0--2h3-0--2h3-0-2h3-----|

Riff One ("Prejudice!")

B|-------------------|
F|-------------------|
D|-------------------|
A|-------------------|
E|-2-2--6--2-5-6-----|
B|-0-0--4--0-3-4-----|

Bridge

B|---------|
F|---------|
D|---------|
A|---------|
E|---4-----|
B|-3---2---|
[ Tab from: http://www.guitartabs.cc/tabs/s/soulfly/prejudice_tab_ver_2.html ]
B|---------|
F|---------|
D|---------|
A|---------|
E|-4-4-3---|
B|-2-2-1---|
 

----------------------------------------------------------------------------
Any suggestions, questions, additions, email me at dimebag@tpgi.com.au


SULFLY

PREJUDICE - tabbed by Dominic Alessio,
dimebag@tpgi.com.au 


NOTE: I can't guarantee this is right, except I'm
pretty sure about the

bridge :). This is a bastard of a song to work out! 


Intro (w/ wah)

B|-5-6-5-6-5-6-5-7---|
F|-------------------|
D|-------------------|
A|-------------------|
E|-------------------|
B|-------------------|

Main Riff

B|-------------------------2\--|
F|-----------------------------|
D|-----------------------------|
A|-----------------------------|
E|-----------------------------|
B|-2-0-0--2-0-0--2-0-0-2-0-----|

Riff One ("Prejudice!")

B|------------|
F|------------|
D|------------|
A|------------|
E|-2---6--2---|
B|-0---4--0---|

Bridge

B|---------|
F|---------|
D|---------|
A|---------|
E|-4-3-3---|
B|-2-1-1---|
Comments