Soulfly - One Chords & Tabs

 

One Chords & Tabs

Soulfly Chords & Tabs

Version: 2 Type: Tab 0 ratings
1 star 2 stars 3 stars 4 stars 5 stars
comments

One Tab

TUNING: Dropped D or lower

INTRO:

|--------------------------------------|
|--13----12--13----17----13--12----17--|
|--------------------------------------|
|--------------------------------------|
|--------------------------------------|
|--------------------------------------|

VERSE & CHOURS:

|-------------|
|-------------|
|-------------|
|--2-2-22-11--|
|--2-2-22-11--|
|--2-2-22-11--|
[ Tab from: http://www.guitartabs.cc/tabs/s/soulfly/one_tab_ver_2.html ]
|--------------------------------|
|--12--13----17----13--12----17--|
|--------------------------------|
|--------------------------------|
|--------------------------------|
|--------------------------------|

SOLO (I don't think it's OK, but...):

|--------12-13-12-13-12-13-12-13-12-13-12-13--|
|--11-----------------------------------------|
|---------------------------------------------|
|---------------------------------------------|
|---------------------------------------------|
|---------------------------------------------|

Comments