Soulfly - No Hope Equals No Fear Chords & Tabs

 

No Hope Equals No Fear Chords & Tabs

Soulfly Chords & Tabs

Version: 1 Type: Tab 0 ratings
1 star 2 stars 3 stars 4 stars 5 stars
comments

No Hope Equals No Fear Tab

   
SONG: No Hope = No Fear
         BAND: Soulfly
        ALBUM: Soulfly
   TRANSCRIBED BY: Nick Biondo (MetlSlp@aol.com)
         DATE: Unknown

 
---------------------------------------------

    TUNING: tune as follows (B-E-A-D-F-B)



     INTRO:

    B|-----------------------------|
    F|-----------------------------|
    D|-----------------------------|
    A|-----------------------------|
    E|-----------------------------|
    B|-4/1-1-0-1-1-0-1-1-0-1\------|

    B|------------------------------------------|
    F|------------------------------------------|
    D|------------------------------------------|
    A|------------------------------------------|
    E|-6/3-3-2-3-3-2-3-3-2-3\-------------------|
    B|-4/1-1-0-1-1-0-1-1-0-1\-------------------|

    B|-----------------------------|
    F|-----------------------------|
    D|-----------------------------|
    A|-----------------------------|
    E|-6-6-3-3/5-5-2-2-x-x-x-x-----|
    B|-4-4-1-1/3-3-0-0-x-x-x-x-----|

     VERSE:

    B|----------------------|
    F|----------------------|
    D|----------------------|
    A|----------------------|
    E|-6-6-3-3-5-5-2-2------|
    B|-4-4-1-1-3-3-0-0------|
      |-----P.M.------|

     CHORUS:

    B|-----------------------------|
    F|-----------------------------|
    D|-----------------------------|
    A|-----------------------------|
    E|-----------------------------|
    B|-4-4--1-1--3-3--0-0--0-0-0---|
      |------------P.M.---------|

     BRIDGE:
[ Tab from: http://www.guitartabs.cc/tabs/s/soulfly/no_hope_equals_no_fear_tab.html ]
    B|-----------------------------|
    F|-----------------------------|
    D|-----------------------------|
    A|-----------------------------|
    E|-----------------------------|
    B|-1-0-1-1-0-1-1-0-1\-4-4-4-/--|

     SOLO: (w/ phaser)

    B|--------------------------------------------------|
    F|--------------------------------------------------|
    D|-9-9-9-9-10-9-9-9-10-9-9-9-10-9-9-9-10-9-9-9-10---|
    A|--------------------------------------------------|
    E|-7-7-7-7--8-7-7-7--8-7-7-7--8-7-7-7--8-7-7-7--8---|
    B|--------------------------------------------------|

    B|----------------------------------------------------|
    F|----------------------------------------------------|
    D|-13-13-13-13-14-13-13-13-14-13-13-13-14-13-13-13-14-|
    A|----------------------------------------------------|
    E|-11-11-11-11-12-11-11-11-12-11-11-11-12-11-11-11-12-|
    B|----------------------------------------------------|

     BRIDGE 2:

    B|-----------------------------|
    F|-----------------------------|
    D|-----------------------------|
    A|-----------------------------|
    E|-3-2-3-3-2-3-3-2-3\-6-6-6-/--|
    B|-1-0-1-1-0-1-1-0-1\-4-4-4-/--|

     OUTRO: (w/ tremelo, amp tremelo, and delay)

    
B|------------------------------------------------------------------------------|
F|-8------7--6-----------------8-----7---6--------------x-x--x-x---8---8--------|
D|------------------------------------------------------------------------------|   
A|------------------------------------------------------------------------------|   
E|------------------------------------------------------------------------------|  
B|-----------------7----7-----------------------7---------------------------6---|


Comments