Soulfly - No Chords & Tabs

 

No Chords & Tabs

Soulfly Chords & Tabs

Version: 3 Type: Bass Tab 0 ratings
1 star 2 stars 3 stars 4 stars 5 stars
comments

No Bass Tab

  Artist: Soulfly
    Song: No
   Album: Soulfly
  Tuning: Standard


Main Riff:

G|----------------|
D|----------------|
A|--1-0-1-0-3333--|
E|----------------|

Fill #1:

G|------|
D|------|
A|------|
E|--44--|

Fill #2:

G|-----|
D|-----|
A|-----|
E|--4--|

Riff #1:
[ Tab from: http://www.guitartabs.cc/tabs/s/soulfly/no_btab_ver_3.html ]
G|---------------------------|
D|---------------------------|
A|-----2-33-2-33-2-33-2-3-2--|
E|--44-----------------------|

Riff #2:

G|---------------------|
D|---------------------|
A|-----2-33-2-33-2-33--|
E|--44-----------------|

Play the song in this order:

Main Riff     x16
Fill #1       x8
Main Riff     x12
Fill #1       x8
Fill #2       x1
Main Riff     x12
Riff #1       x4
Riff #2       x8
Fill #2       x1
Main Riff     x12
Riff #1       x3
Riff #2       x8
Fill #2       x1
Comments