Soulfly - Mulambo Chords & Tabs

 

Mulambo Chords & Tabs

Soulfly Chords & Tabs

Version: 1 Type: Tab 0 ratings
1 star 2 stars 3 stars 4 stars 5 stars
comments

Mulambo Tab

   
Song: "Mulambo"
Artist: Soulfly
Album: Primitive
Transcribed By: Bryan Bramlett (bryanmb87@aol.com)

Tuning: Drop D, 1 1/2 Steps Down, (B,F#,B,E,G#,C#)

MAIN RIFF: (* - note is occasionally skipped during song)
|---------------------------|
|---------------------------|
|---------------------------|
|---------------------------|
|-*2*-1-1-2-1-2-1-1-1-1-2-1-|
|-*2*-1-1-2-1-2-1-1-1-1-2-1-|

VERSE: (w/ effect)
|-------------------------|
|-------------------------|
|-------------------------|
|-1-1-2-1-2-1-1-1-1-2-1---|
|-----------------------4-|
|-------------------------|
[ Tab from: http://www.guitartabs.cc/tabs/s/soulfly/mulambo_tab.html ]
BRIDGE: (I think a whammy bar is being used for slide. don’t slide
|------------------------------| more than 2 frets)
|-----10-10-10-10-10-10-10-10\-|
|------X--X--X--X--X--X--X--X--|
|-0-0--7--7--7--7--7--7--7--7\-|
|-0-0--------------------------|
|-0-0--------------------------|

INTERLUDE:
|---------------------------------|
|---------------------------------|
|---------------------------------|
|---------------------------------|
|---------------------------------|
|-0-0-1-0-0-0-0-0-0-0-1-0-0-0-6-0-|

INTERLUDE 2:
|-------------------------------|
|-------------------------------|
|-------------------------------|
|-0-0-1-0-0-0-0-0-0-0-1-0-0-0-6-|
|-0-0-1-0-0-0-0-0-0-0-1-0-0-0-6-|
|-0-0-1-0-0-0-0-0-0-0-1-0-0-0-6-|

INTERLUDE 2B: (* - play several times gradually bending 1 step up)
|----------------------------------|    |------|
|----------------------------------|play|------|
|-13131313131313131313131317171717-| 2X |-*17*-|
|--X-X-X-X-X-X-X-X-X-X-X-X-X-X-X-X-|then|-*-X*-|
|-11111111111111111111111115151515-|    |-*15*-|
|----------------------------------|    |------|


Comments