Soulfly - Jumpdafuckup Chords & Tabs

 

Jumpdafuckup Chords & Tabs

Soulfly Chords & Tabs

Version: 4 Type: Tab 0 ratings
1 star 2 stars 3 stars 4 stars 5 stars
comments

Jumpdafuckup Tab

   
          Soulfly - jump da fuck up
          Tuning - Drop D tuning, tuned down 1 and a half steps 
          Low to high = B F# B E G# C#
          Transcribed by Mark Kerry
          
          Key 
          x = palm mute
          * = natural harmonics
          ~ = vibrato
          B = bend
          h = hammer on
          p = pull off
          
          Use distortion throughout apart from the clean verse
          
          Intro (guitar 1)        
          |-------------------------| |-------------------|
          |----------------------x7-| |-------------------|
          |-------------------------| |-------------------|
          |-------------------------| |-------------------|
          |-------------------------| |-------------------|
          |-3-2-2-1-1-0-1-1-2-3-----| |-----3-2-2-1-1-1---|
                                                        
          Intro (guitar 2)
          |-------------------------| |-------------------|
          |----------------------x7-| |-------------------|
          |-------------------------| |-------------------|
          |-------------------------| |-------------------|
          |-------------------------| |-------------------|
          |--3-4-4-5-5-6-5-5-4-3----| |----3-4-4-5-5-5----|
          nh *******************          ************
                                                     
          Heavy riff (guitar 1&2)
          |-------------------------------------------|
          |-------------------------------------------|
          |-------------------------------------------|
          |-------------------------------------------|
          |-3-2-2-1-1-0-1-1-2-3-----------------------|
          |-3-2-2-1-1-0-1-1-2-3-----------------------|
                                                            
          Verse (guitar 1) clean
          |-------------------------------------------|
          |--~~~~~~~~~~----~~~~~~~~~~~~---------------|
          |-8-------------9---------------------------|
          |-------------------------------------------|
          |-------------------------------------------|
          |-------------------------------------------|
                                                
          Chorus (guitar 1&2)
          |-------------------------------------------|
          |-------------------------------------------|
          |-------------------------------------------|
          |-------------------------------------------|
          |-6b-0--0-0--0--0--0--0-0--5-6--------------|
          |----0--0-0--0--0--0--0-0--5-6--------------|
          I'm not too sure about this riff
                                       
          Bridge (guitar 1&2)
          |-------------------------------------------|
          |-------------------------------------------|
          |-------------------------------------------|
          |-------------------------------------------|
          |-0--1--4--3--0--1--------------------------|
          |-0--1--4--3--0--1--------------------------|
                                             
          Heavy verse/outo (guitar 1&2)
          |-------------------------------------------|
          |-------------------------------------------|
          |-------------------------------------------|
          |-------------------------------------------|
          |-1-0-0-0-0-1-0-0-0-0-1h2p0-----------------|
          |-1-0-0-0-0-1-0-0-0-0-1h2p0-----------------|
             x x x x   x x x x 
          I'm not too sure about this riff                                             
          
          ===========

                SONG: Jumpdafuckup
          	    BAND: Soulfly (with Corey Taylor)
          	    ALBUM: Primitive
             TRANSCRIBED BY: Alex Light (digitalmaggit@aol.com)
          	     DATE: Unknown
          
           
          
          	TUNING: tune down as follows (B,E,A,D,G,B)
          
          
             
               RIFF A: (w/ phaser)
          
              |---------------------------------------------|
              |---------------------------------------------|
              |---------------------------------------------|
              |---------------------------------------------|
              |---------------------------------------------|
              |--4p2-2-2-2/1-1-1-0h1-1-1\2-2----|
          
               RIFF B: (after "jumpdafuckup!")
          
              |------------------------------|
              |------------------------------|
              |------------------------------|
              |----2-2-2-2-----2-2-2-2-------|
              |--3p2-2-2-2-3p2-2-2-2-3-3-6---|
              |--1p0-0-0-0-1p0-0-0-0-1-1-4---|
          
               RIFF C:
          
              |--3--4--|
              |--------|
              |--------|
              |--------|
              |--------|
              |--------|
          
               RIFF D:
          
              |------------------------------|
              |------------------------------|
              |------------------------------|
              |--2-2-2-2-2-2-2-2-2-2-2-2--6--|
              |--2-2-2-2-2-2-2-2-2-2-2-2-----|
              |--0-0-0-0-0-0-0-0-0-0-0-0-----|
          
               RIFF E: (w/ phaser)
          
              |----------------|
              |----------------|
              |----------------|
              |----------------|
              |--6-5-9-8-5-6---|
              |--4-3-7-6-3-4---|
          
               RIFF F:
          
              |--------------------------------------------------------|
              |--------------------------------------------------------|
              |--------------------------------------------------------|
              |--------------------------------------------------------|
              |--5-5-5-5-5-5-5-5-5-5-5-5-6--3-3-3-3-3-3-3-3-3-3-3-3-2--|
              |--3-3-3-3-3-3-3-3-3-3-3-3-4--3-3-3-3-3-3-3-3-3-3-3-3-0--|
[ Tab from: http://www.guitartabs.cc/tabs/s/soulfly/jumpdafuckup_tab_ver_4.html ]
Comments