Soulfly - Jumpdafuckup Chords & Tabs

 

Jumpdafuckup Chords & Tabs

Soulfly Chords & Tabs

Version: 3 Type: Tab 0 ratings
1 star 2 stars 3 stars 4 stars 5 stars
comments

Jumpdafuckup Tab

   
              SONG: Jumpdafuckup
	     BAND: Soulfly (with Corey Taylor)
	    ALBUM: Primitive
   TRANSCRIBED BY: Fernando Delgado elrockero56@aol.com
          By my band:Peos Verdes Eduardo/Josue/Fernan 
	TUNING: tune down as follows (B,E,A,D,G,B)



     RIFF A: (w/ phaser)

    |---------------------------------------------|
    |---------------------------------------------|
    |---------------------------------------------|
    |---------------------------------------------|
    |---------------------------------------------|
    |--4p2-2-2-2/1-1-1-0h1-1-1\2-2----|

     RIFF B: (after "jumpdafuckup!")

    |------------------------------|
    |------------------------------|
    |------------------------------|
    |----2-2-2-2-----2-2-2-2-------|
    |--3p2-2-2-2-3p2-2-2-2-3-3-6---|
    |--1p0-0-0-0-1p0-0-0-0-1-1-4---|
[ Tab from: http://www.guitartabs.cc/tabs/s/soulfly/jumpdafuckup_tab_ver_3.html ]
     RIFF C:

    |--3--4--|
    |--------|
    |--------|
    |--------|
    |--------|
    |--------|

     RIFF D:

    |------------------------------|
    |------------------------------|
    |------------------------------|
    |--2-2-2-2-2-2-2-2-2-2-2-2--6--|
    |--2-2-2-2-2-2-2-2-2-2-2-2-----|
    |--0-0-0-0-0-0-0-0-0-0-0-0-----|

     RIFF E: (w/ phaser)

    |----------------|
    |----------------|
    |----------------|
    |----------------|
    |--6-5-9-8-5-6---|
    |--4-3-7-6-3-4---|

     RIFF F:

    |--------------------------------------------------------|
    |--------------------------------------------------------|
    |--------------------------------------------------------|
    |--------------------------------------------------------|
    |--5-5-5-5-5-5-5-5-5-5-5-5-6--3-3-3-3-3-3-3-3-3-3-3-3-2--|
    |--3-3-3-3-3-3-3-3-3-3-3-3-4--3-3-3-3-3-3-3-3-3-3-3-3-0--|
Comments