Soulfly - Execution Style Chords & Tabs

 

Execution Style Chords & Tabs

Soulfly Chords & Tabs

Version: 1 Type: Tab 0 ratings
1 star 2 stars 3 stars 4 stars 5 stars
comments

Execution Style Tab

   
Band- Soulfly
Song- Execution Style

Tuning: Drop D (D A D G B E)

Remember palm mute!

Intro
E|131213121312131213121312->------||
B|--------------------------------||
G|--------------------------------||
D|--------------------------------||
A|0--0--0-0---0--0--0-0-----------||
D|0--0--0-0---0--0--0-0-----------||


Chorus
4x
E|------------------------------------------------||
B|------------------------------------------------||
G|------------------------------------------------||
D|6------7------7s6-------------------------------||
A|4--0-0-5--0-0-5s4-0-0-0-0-0-0-------------------||
D|---0-0----0-0-----0-0-0-0-0-0-------------------||

(optional)
E|----------------||
B|----------------||
G|----------------||
D|----------------||
A|----------------||
D|7s6s5s4s3s2s1---||


Phase
8x
E|----------------||
B|----------------||
G|----------------||
D|-6-------10s6---||
A|-4-0-0-0-8-s4---||
D|0--0-0-0--------||


Chorus
4x
E|------------------------------------------------||
B|------------------------------------------------||
G|------------------------------------------------||
D|6------7------7s6-------------------------------||
A|4--0-0-5--0-0-5s4-0-0-0-0-0-0-------------------||
D|---0-0----0-0-----0-0-0-0-0-0-------------------||


Phase
8x
E|----------------||
B|----------------||
G|----------------||
D|-6-------10s6---||
A|-4-0-0-0-8-s4---||
D|0--0-0-0--------||


Then
8x
E|----------------||
B|----------------||
G|----------------||
D|----------------||
A|0-0-0-0-0-0-4-1-||
D|0-0-0-0-0-0-4-1-||

[ Tab from: http://www.guitartabs.cc/tabs/s/soulfly/execution_style_tab.html ]
4x
E|------------------------------------------------||
B|------------------------------------------------||
G|------------------------------------------------||
D|------------------------------------------------||
A|4-3-3-3-4-3-3-3-2-2-2-1-1-1---------------------||
D|4-3-3-3-4-3-3-3-2-2-2-1-1-1---------------------||



E|----------------------------------------------------------------||
B|-------------------------solo-----------------------------------||
G|----------------------------------------------------------------||
D|----------------------------------------------------------------||
A|0-0-0-0-0-0-0-0-0-0-0-0-0-0-0-0-0-0-0-0-0-0-0-0-0-0-0-0-0-0-0-0-||
D|0-0-0-0-0-0-0-0-0-0-0-0-0-0-0-0-0-0-0-0-0-0-0-0-0-0-0-0-0-0-0-0-||


Then
4x
E|------------------------------------------------||
B|------------------------------------------------||
G|------------------------------------------------||
D|------------------------------------------------||
A|4-3-3-3-4-3-3-3--0-0-0-3-4-4--------------------||
D|4-3-3-3-4-3-3-3--0-0-0-3-4-4--------------------||


Chorus
4x
E|------------------------------------------------||
B|------------------------------------------------||
G|------------------------------------------------||
D|6------7------7s6-------------------------------||
A|4--0-0-5--0-0-5s4-0-0-0-0-0-0-------------------||
D|---0-0----0-0-----0-0-0-0-0-0-------------------||


Phase
8x
E|----------------||
B|----------------||
G|----------------||
D|-6-------10s6---||
A|-4-0-0-0-8-s4---||
D|0--0-0-0--------||


End
E|1312131213121312131213121312131213121312--------||
B|------------------------------------------------||
G|------------------------------------------------||
D|------------------------------------------------||
A|0--0--0-0---0--0--0-0---0--0--0-0---------------||
D|0--0--0-0---0--0--0-0---0--0--0-0---------------||
Comments