Soulfly - Bumbklaatt Chords & Tabs

 

Bumbklaatt Chords & Tabs

Soulfly Chords & Tabs

Version: 1 Type: Tab 0 ratings
1 star 2 stars 3 stars 4 stars 5 stars
comments

Bumbklaatt Tab

   
TUNING: tune as follows (B-E-A-D-F-B)


     INTRO:
    
    B|-5-5--------| harmonics
    F|------------|
    D|------------|
    A|------------|
    E|------------|
    B|------7b----|

     VERSE:

    B|--------------------------------------------x-x----------|
    F|--------------------------------------------x-x----------|
    D|--------------------------------------------x-x-----x-x--|
    A|----------------------------------------------------x-x--|
    E|-2-2-2-5-8-4--2-2-2-5-8-4--2-2-2-5-8-4--2-2-----2-2------|
    B|-0-0-0-3-6-2--0-0-0-3-6-2--0-0-0-3-6-2--0-0-----0-0------|

     FILL 1: (not positive of this riff)
[ Tab from: http://www.guitartabs.cc/tabs/s/soulfly/bumbklaatt_tab.html ]
    B|------------------------------------|
    F|------------------------------------|
    D|------------------------------------|
    A|------------------------------------|
    E|---6---6---6---6---6---6---6--------| harmonics
    B|-4---4---4---4---4---4---4----5-3---|

     CHORUS:

    B|--------------------------|
    F|--------------------------|
    D|--------------------------|
    A|--------------------------|
    E|-6-6-x-6-6-x-6-6--6-7-5---|
    B|-4-4-x-4-4-x-4-4--4-5-3---|

     BRIDGE:

    B|------------|
    F|------------|
    D|------------|
    A|------------|
    E|-2-2--2-2---|
    B|-0-0--0-0---|

     OUTRO:

    B|-----------------|
    F|-----------------|
    D|-----------------|
    A|-----------------|
    E|-6-x-x-6-x-x-6---|
    B|-4-x-x-4-x-x-4---|

Comments