Soulfly - Bring It Chords & Tabs

 

Bring It Chords & Tabs

Soulfly Chords & Tabs

Version: 2 Type: Tab 0 ratings
1 star 2 stars 3 stars 4 stars 5 stars
comments

Bring It Tab

   
Tuning:(From low to high): B F# B E G# C#
[Drop D tuning down 1 1/2 steps]


  Intro
||-------------------------------------------
||-------------------------------------------
||-2-2-2-2-3-2-2-2-2-3-|play |---------------
||-0-0-0-0-1-0-0-0-0-1-|twice|---------------
||-------------------------------------------
||-------------------------------------------
||-------------------------------------------

  Verse
||-------------------------------------------
||-------------------------------------------
||-------------------------------------------
||------------3------------------------------
||------------1------------------------------
||--0-0--0-0---------------------------------
||--0-0--0-0---------------------------------

    Fill

||-------------------------------------------
||-------------------------------------------
||-------------------------------------------
||---------2-3-------------------------------
||---------0-1-------------------------------
||--0-0-0------------------------------------
||--0-0-0------------------------------------

[ Tab from: http://www.guitartabs.cc/tabs/s/soulfly/bring_it_tab_ver_2.html ]
  Chorus
||-------------------------------------------
||-------------------------------------------
||-------------------------------------------
||-------------------------------------------
||-------------------------------------------
||--0-0-0-0-2-0-0-0-0-3-0-0-0-0-5-0-0-0-7~---
||--0-0-0-0-2-0-0-0-0-3-0-0-0-0-5-0-0-0-7~---

Breakdown
  Guitar 1
||-------------------------------------------
||--10-10-10-10-8\---------------------------
||-------------------------------------------
||-------------------------------------------
||-------------------------------------------
||-------------------------------------------
||-------------------------------------------
  There is a lot of improvisation towards the
  end, a few mutes and stuff.


  Guitar 2
||-----|-----|---------------------------------
||--10-|--13-|--15-----------------------------
||-----|-----|---------------------------------
||---7-|--10-|--12-----------------------------
||-----|-----|---------------------------------
||-----|-----|---------------------------------
||-----|-----|---------------------------------
  These are just the chords; there is a hell of
  a lot improvising on these.

  Bass transcribed for guitar
||--------------------------------------------
||--------------------------------------------
||--------------------------------------------
||--------------------------------------------
||--12-12-10-10-------------------------------
||--------------13-13-12-12-10-10-10-10h12-12-
||--------------------------------------------
Comments