Soulfly - Boom Chords & Tabs

 

Boom Chords & Tabs

Soulfly Chords & Tabs

Version: 2 Type: Tab 0 ratings
1 star 2 stars 3 stars 4 stars 5 stars
comments

Boom Tab

   
Band- Soulfly
Song- Boom

b - bend
  p - pull off

 tune 2 1/2 tones down: B E A D F# B

  ~ Bass Interlude(Marcello uses some weird effect) ~

  ~ Verse(listen for timing)~
 |-------------------| 16x
 |-------------------|
 |-------------------|
 |-------------------|
 |-------------------|
 |--0-0-0-0-3-1-3-1--|

  ~ Bass Interlude ~

  ~ Verse ~ 12x

  ~ Bridge ~
 |-----------------------------| 2x
 |-----------------------------|
 |-----------------------------|
 |------------1b-----------3b--|
 |-----------------------------|
 |--3-0-3-0-3---3-0-3-0-1------|
  pm........    ........

  ~ Verse ~ 8 x

  ~ Bridge ~ 4x
[ Tab from: http://www.guitartabs.cc/tabs/s/soulfly/boom_tab_ver_2.html ]
  ~ Chorus ~
 |---------------------------| 4x
 |---------------------------|
 |---------------------------| this riff
 |---------------------------| kix ass!!
 |--2-3-2-2-3-2-3-2-2-3-5-5--|
 |--0-1-0-0-1-0-1-0-0-1-3-3--|

  ~Post-Chorus(light Flanger)~
 |------13p12-----13p12-----14p13----------| 2x
 |--12--------12--------12---------10--13--|
 |-----------------------------------------| this riff
 |-----------------------------------------| rox, too!
 |-----------------------------------------|
 |-----------------------------------------|

  ~ Verse ~ 16 x

  ~ Bridge ~ 2x

  ~ Verse ~ 8x

  ~ Bridge ~ 4x

  ~ Chorus ~ 4x

  ~ Post Chorus ~ 2x

  ~ Chorus ~ 8x

  ~ Solo ~
  (coming soon...)

  ~ Outro ~
 |--------------------|--14-some bends, harmonix around this chord-|
 |--------------------|--12-but Flanger is used--------------------|
 |--------------------|--------------------------------------------|
 |--------------------|--------------------------------------------|
 |--9~~8~~7~/6/5/4/2--|--------------------------------------------|
 |--7~~6~~5~/4/3/2/0--|--------------------------------------------|

Comments