Soulfly - Boom Chords & Tabs

 

Boom Chords & Tabs

Soulfly Chords & Tabs

Version: 1 Type: Tab 0 ratings
1 star 2 stars 3 stars 4 stars 5 stars
comments

Boom Tab

   
Song: "Boom"
Artist: Soulfly
Album: Primitive
Transcribed By: Bryan Bramlett (bryanmb87@aol.com)

Tuning: Drop D, Down 2 1/2 Steps (A,E,A,D,G,B)
^ - bend 1/2 step
^(n) - bend 1/2 step and release

INTRO:
|-----------------|
|-----------------|
|-----------------|
|-12-XXXX-12-XX-X-|
|-12-XXXX-12-XX-X-|
|-12-XXXX-12-XX-X-|

VERSE:
|---------------------------------|
|---------------------------------|
|---------------------------------|
|---------------------------------|
|-0-0-0-0-0-1-2-1-0-0-0-0-0-1-2-1-|
|-0-0-0-0-0-1-2-1-0-0-0-0-0-1-2-1-|
[ Tab from: http://www.guitartabs.cc/tabs/s/soulfly/boom_tab.html ]
BRIDGE:
|-------------------------|
|-------------------------|
|-------------------------|
|-12-X-12-12-X-12-X-12-14-|
|-12-X-12-12-X-12-X-12-14-|
|-12-X-12-12-X-12-X-12-14-|

CHORUS:
|-----------------|
|-----------------|
|-----------------|
|-2-323-23-232320-|
|-2-323-23-232320-|
|-2-323-23-232320-|

INTERLUDE: (guitar 1)
|------5-4-------5-4----5-4------|
|-4-4------4^(4)-----4^-----2--5-|
|--------------------------------|
|--------------------------------|
|--------------------------------|
|--------------------------------|

INTERLUDE B: (guitar 2)
|-7-5--------5-4h5p4---------------|
|-----8-6-8----------8-6-8--8--8-9-|
|----------------------------------|
|----------------------------------|
|----------------------------------|
|----------------------------------|


Comments