Soulfly - Back To The Primitive Chords & Tabs

 

Back To The Primitive Chords & Tabs

Soulfly Chords & Tabs

Version: 1 Type: Tab 0 ratings
1 star 2 stars 3 stars 4 stars 5 stars
comments

Back To The Primitive Tab

   
Song: "Back To the Primitive"
Artist: Soulfly
Album: Primitive
Transcribed By: Bryan Bramlett (bryanmb87@aol.com)

Tuning: Drop D, 1 1/2 Steps Down, (B,F#,B,E,G#,C#)

INTRO:
|-------|
|-------|
|-------|
|-0--0--|
|-0--0--|
|-0--0--|

INTRO B: (w/ effect)
|--------------------------------|
|-7-777-77-77-7777-777-77-99-9---|
|-X-XXX-XX-XX-XXXX-XXX-XX-XX-X-7-|
|-4-444-44-44-4444-444-44-66-6-X-|
|------------------------------5-|
|--------------------------------|
[ Tab from: http://www.guitartabs.cc/tabs/s/soulfly/back_to_the_primitive_tab.html ]
VERSE:
|------------------------------------------------------|
|------------------------------------------------------|
|------------------------------------------------------|
|-1/3-0-0-0--1/3-0-0-0--1/3-0-0-0--1/3-0-0-0--11-11-11-|
|-1/3-0-0-0--1/3-0-0-0--1/3-0-0-0--1/3-0-0-0--11-11-11-|
|-1/3-0-0-0--1/3-0-0-0--1/3-0-0-0--1/3-0-0-0--11-11-11-|

BRIDGE:
|--------------------------|
|--------------------------|
|--------------------------|
|--------------------------|
|-1-0--0-1-0--0-1-0--0-2-1-|
|-1-0--0-1-0--0-1-0--0-2-1-|

CHORUS:
|-------------------------|
|-------------------------|
|-------------------------|
|-1-0--1-0--1-0--1-0--2-1-|
|-1-0--1-0--1-0--1-0--2-1-|
|-1-0--1-0--1-0--1-0--2-1-|

Comments