Soulfly - Back To The Primitive Chords & Tabs

 

Back To The Primitive Chords & Tabs

Soulfly Chords & Tabs

Version: 3 Type: Bass Tab 0 ratings
1 star 2 stars 3 stars 4 stars 5 stars
comments

Back To The Primitive Bass Tab

I couldn't help but laugh at the current Back To The Primitive tab, so enjoy ;)

Intro 2 x
G------------------------------------------------------------------------------|
D------------------------------------------------------------------------------|
A------------------------------------------------------------------------------|
E-3---3---3---3----------------------------------------------------------------|

Main riff 4x
G------------------------------------------------------------------------------|
D------------------------------------------------------------------------------|
A------------------------------------------------------------------------------|
E-0-1-2-1-0--------------------------------------------------------------------|

Bridge1x
G------------------------------------------------------------------------------|
D------------------------------------------------------------------------------|
A------------------------------------------------------------------------------|
E-7-7-7-7-7-7-7-7--------------------------------------------------------------|

Main riff 4x
Bridge 1x
[ Tab from: http://www.guitartabs.cc/tabs/s/soulfly/back_to_the_primitive_btab_ver_3.html ]
Fill 2x
G------------------------------------------------------------------------------|
D------------------------------------------------------------------------------|
A------------------------------------------------------------------------------|
E-1-0--0-1-0--0-1-0--0-2-1-----------------------------------------------------|

Main riff 4x
Bridge 1x
Main riff 4x
Bridge 1x
Fill 4x

Chorus 8x
G------------------------------------------------------------------------------|
D------------------------------------------------------------------------------|
A------------------------------------------------------------------------------|
E-1-0-1-0-1-0-1-0-2-1----------------------------------------------------------|

Intro 1x
Main riff 4x
Bridge 1x
Main riff 4x
Bridge 1x
Fill 2x
Main riff 4x
Bridge 1x
Main riff 4x
Bridge 1x
Fill 4x
Chorus 8x

Solo 3x
G-------------------------------------------------------------------------------|
D-------------------------------------------------------------------------------|
A-------------------------------------------------------------------------------|
E-2-1-2-1-2-1-2-1--9/1----------------------------------------------------------|

Variation 1x
G-------------------------------------------------------------------------------|
D-------------------------------------------------------------------------------|
A-------------------------------------------------------------------------------|
E-2-1-2-1-2-1-2-1--9------------------------------------------------------------|

Chorus 12x
Comments