Soul Coughing - White Girl Chords & Tabs

 

White Girl Chords & Tabs

Soul Coughing Chords & Tabs

Version: 1 Type: Bass Tab 0 ratings
1 star 2 stars 3 stars 4 stars 5 stars
comments

White Girl Bass Tab

WHITE GIRL
written/performed by soul coughing
from the album "irresistible bliss"
transcribed by james meakim (mistameaks@aol.com)


sounds best on an upright or fretless.
 denotes a natural harmonic.
[ Tab from: http://www.guitartabs.cc/tabs/s/soul_coughing/white_girl_btab.html ]
    intro
G|-------------------------------|
D|-------------xh16\-------------------xh16\-|
A|-0-3-0--------------0-3-0------------------|
E|-------------------------------------------|

    verse
G|-----------------|
D|----------xh16\--|
A|-0-3-0-----------|
E|-----------------|

    chorus
G|-----------|
D|-------1---|
A|-3-0-3---0-|
E|-----------|


Comments