Soul Coughing - Uh Zoom Zip Chords & Tabs

 

Uh Zoom Zip Chords & Tabs

Soul Coughing Chords & Tabs

Version: 2 Type: Bass Tab 0 ratings
1 star 2 stars 3 stars 4 stars 5 stars
comments

Uh Zoom Zip Bass Tab

"uh, zoom zip" by soul coughing
UH, ZOOM ZIP
written/performed by Soul Coughing
from the album "Ruby Vroom"
transcribed by James Meakim (mistameaks@aol.com)

Most of this song is basically just one riff. I'm a loser,
so I've actually taken the time to figure out some of the
parts that Sebastian plays with some consistency.
[ Tab from: http://www.guitartabs.cc/tabs/s/soul_coughing/uh_zoom_zip_btab_ver_2.html ]
   main riff (w/ lots of variation)
G|-------------------------------|
D|---5-55-------------5-55-------|
A|--------7-----5h7--------7-7\--|
E|-0--------x-7-----0------------|

   chorus riff
G|-------------------------------------------------------------|
D|---5-55-------------5-55-------5-55-------------55-----------|
A|--------7-----5h7--------7^\--------7-----5h7------7----5-7--|
E|-0--------x-7-----0----------0--------x-7-----0-------5------|

   bridge
G|--------------|
D|-----------5--|
A|-------2/7----|
E|-0-0-0--------|


Have fun.

~meakim 
Comments