Soul Coughing - True Dreams Of Wichita Chords & Tabs

 

True Dreams Of Wichita Chords & Tabs

Soul Coughing Chords & Tabs

Version: 3 Type: Bass Tab 0 ratings
1 star 2 stars 3 stars 4 stars 5 stars
comments

True Dreams Of Wichita Bass Tab

Tabbed by: Mightywombat

Tuning: Standard

Notes: As usual, this isn't official or anything, I was just trying to find tabs for the
breakdown online and couldn't, so I sat down and figured it out.  I moved the main riff
up to the A and D strings to get those low filler notes on the E that you can only kinda
hear.  You'll have to listen to the song to get the rhythm right.  Also, this is my first
tab, so be gentle, please.
[ Tab from: http://www.guitartabs.cc/tabs/s/soul_coughing/true_dreams_of_wichita_btab_ver_3.html ]
Main Riff
G|------------------------|
D|-------4-------5--------|
A|--5-------2--------5----|
E|------------------------|


Transition to the breakdown (at "Punch it!  I got, uh, fed" - time 3:30)
G|------------------------|
D|------4------5m---------|
A|--5------2-----0-3-4-5--|
E|------------------------|


Breakdown (play until "I got to run my side, True dreams..." - time 4:00,
then go back to main riff, holding that last note as the first of the main riff)

G|------------------------|
D|---------4--------------|
A|--0--3h5--------5-------|
E|-----------3-4----------|
Comments